Song name
# A B C D E F G H I J K L M N O P Q R S T U V W X Y Z

The White Room - Enemies Closer tab

This is kinda correct.. i think..ah well it sounds trippy anyway...and i couldnt figure 
chorus out either!..im kinda hopeless at tabbing,so yeah,u should be able 2 figure it out..:P
http://www.thewhiteroommusic.com.au/

intro/verse
e|----------------------------------------------------------------|
B|----------------------------------------------------------------|
G|----------------------------------------------------------------|
D|----------------------------------------------------------------| X2
A|4--4-4--4-4--4-4--4-4--4-4--4-4--4-4--4-4--4-4--4-4--4-4--4-4---|
E|2--2-2--2-2--2-2--2-2--2-2--2-2--2-2--2-2--2-2--2-2--2-2--2-2---|
  |---------------------------------------------------------------|
                                   PM
e|-----------------------------------------|
B|-----------------------------------------|
G|-----------------------------------------|
D|-----------------------------------------|
A|7-7--7-7--7-7--7-7--7-7--7-7--7-7--7-7---|
E|5-5--5-5--5-5--5-5--5-5--5-5--5-5--5-5---|
  |----------------------------------------|
                  PM
e|-----------------------------------------|
B|-----------------------------------------|
G|-----------------------------------------|
D|-----------------------------------------|
A|3-3--3-3--3-3--3-3--3-3--3-3--3-3--3-3---|
E|1-1--1-1--1-1--1-1--1-1--1-1--1-1--1-1---|
  |----------------------------------------|
                  PM
e|-----------------------------------------|
B|-----------------------------------------|
G|-----------------------------------------|
D|-----------------------------------------|
A|4-4--4-4--4-4--4-4--4-4--4-4--4-4--4-4---|
E|2-2--2-2--2-2--2-2--2-2--2-2--2-2--2-2---|
  |----------------------------------------|
                  PM
e|-----------------------------------------|
B|-----------------------------------------|
G|-----------------------------------------|
D|-----------------------------------------|
A|7-7--7-7--7-7--7-7--7-7--7-7--7-7--7-7---|
E|5-5--5-5--5-5--5-5--5-5--5-5--5-5--5-5---|
  |----------------------------------------|
                  PM
e|-----------------------------------------|
B|-----------------------------------------|
G|-----------------------------------------|
D|-----------------------------------------|
A|3-3--3-3--3-3--3-3--3-3--3-3--3-3--3-3---|
E|1-1--1-1--1-1--1-1--1-1--1-1--1-1--1-1---|
  |----------------------------------------|
                  PM
Tap to rate this tab
 
# A B C D E F G H I J K L M N O P Q R S T U V W X Y Z