Guitaretab - guitar tabs
Song name
# A B C D E F G H I J K L M N O P Q R S T U V W X Y Z

The White Stripes - Dead Leaves & The Dirty Ground tab

Artist: White Stripes
Song: Dead leaves and the dirty ground
Album: White Blood Cells
Tabbed by: colin boylan (HairyJapeneseGoldfish) & Robert Lavigne (Rocken
Rob)
Date: 09/10/02
Email: colin_boylan@hotmail.com & R_O_B_L@hotmail.com

Key_________________
|~ = vibratum        |
|p = pull off        |
|/ = slide           |
|^ = bend            |
|x = blocked sting(s)|
|<>= harmonic        |
|____________________|



INTRO :Play note on fat E as power chords and squiel
the 17th to the 18th high E to start

e|--17^(18)------------------------------|----------
b|---------------------------------------|----------
g|---------------------------------------|----------
d|------------------------------------7--|----------
a|------------------------------------7--|----------
E|-----------5-~5~--3~-3~-2~-2~--1-1--5--|----3-----



Pick VERSES :x2 before you start singing
    A              G           C        D
e|--------------------------------------------------
b|--------------------------------------------------
g|-------7p6------------4----------5---------7------
d|------------7-----------5------5---5----7----7----
a|----7---------------5--------3--------5-----------
E|--5-------------2/3-------------------------------

Dead leaves and......

(on the repeat of the last words on every verse he play slightly different)

    F        G       A
e|--------------------------------------------------
b|--------------------------------------------------
g|--------------------------------------------------
d|3---------5-------7-------------------------------
a|3---------5-------7-------------------------------
E|1---------3-------5-------------------------------


(break)

HEAVY PART :when hittin the blocked string above
            the fifth and third string try and achieve
            an harmonic by gently placing your finger
            over fret and hit the string.
    A                      G
e|--------------------------------------------------
b|--------------------------------------------------
g|--------------------------------------------------
d|--7- x---x--7---x---x----5--x---x---5--x---x------
a|--7- x---x--7---x---x----5--x---x---5--x---x------
E|--5-<5>-<5>-5--<5>-<5>---3-<3>-<3>--3-<3>-<3>-----

    C        D       A
e|--------------------------------------------------
b|--------------------------------------------------
g|--5-5-----7-7-------------------------------------
d|--5-5-----7-7-----7-------------------------------
a|--3-3-----5-5-----7-------------------------------
E|------------------5-----3-------------------------


(slight change here)
e|--------------------------------------------------
b|--------------------------------------------------
g|--------------------------------------------------
d|--------------------------------------------------
a|--------------------------------------------------
E|--5---3---2--1---5------3-- back into verse ------


(long break)

(first part X2)

   A                      G
e|--------------------------------------------------
b|--------------------------------------------------
g|--------------------------------------------------
d|--7- x---x--7---x---x----5--x---x---5--x---x------
a|--7- x---x--7---x---x----5--x---x---5--x---x------
E|--5-<5>-<5>-5--<5>-<5>---3-<3>-<3>--3-<3>-<3>-----

    C        D       A
e|--------------------------------------------------
b|--------------------------------------------------
g|--5-5-----7-7-------------------------------------
d|--5-5-----7-7-----7-------------------------------
a|--3-3-----5-5-----7-------------------------------
E|------------------5-----3-------------------------

(2nd part)

    D                        A
e|--------------------------------------------------
b|--------------------------------------------------
g|--7-7-7-7-7-7-7-7---------------------------------
d|--7-7-7-7-7-7-7-7----------7-7-7-7----------------
a|--5-5-5-5-5-5-5-5----------7-7-7-7----------------
E|---------------------------5-5-5-5-----3----------

    D                  F             G
e|--------------------------------------------------
b|--------------------------------------------------
g|--7-7-7-7-7-7-7-7---------------------------------
d|--7-7-7-7-7-7-7-7----3-3-3-3-3-----5-5-5-5-5------
a|--5-5-5-5-5-5-5-5----3-3-3-3-3-----5-5-5-5-5------
E|---------------------1-1-1-1-1-----3-3-3-3-3------


e|--------------------------------------------------
b|--------------------------------------------------
g|--------------------------------------------------
d|--------------------------------------------------
a|--------------------------------------------------
E|--5---3---2--1---5------3-- back into verse ------

(pick end)
[ Tab from: http://www.guitaretab.com/t/the-white-stripes/23735.html ]
Related for Dead Leaves & The Dirty Ground tab