Song name
# A B C D E F G H I J K L M N O P Q R S T U V W X Y Z

The Whitest Boy Alive - 24k tab

Song: 24k
Artist: The Whitest Boy Alive
Album: Burning EP

MY NAMES IS CARLOS FROM MEXICO CITY AND I HAVE 18 YEARS OLD
I MADE THIS ONE BY THE EAR
I HOPE YOU ENJOY
CHEERS

e|---------------------------------------|
B|-----------------------------------8---|
G|-5---8-8---5---8-8---5---8-8---5-------|
D|---------------------------------------|
A|---------------------------------------|
E|---------------------------------------|

e|---------------------------------------------|
B|---------------------------------------------|
G|-5---8-8---5---8-8---5---8-8---10p8----------|
D|------------------------------------10p8--10-|
A|---------------------------------------------|
E|---------------------------------------------|

e|---------------------------------------|
B|---------------------------------------|
G|-5---8-8---5---8-8---5---8-8---5----13-|
D|------------------------------------12-|
A|---------------------------------------|
E|---------------------------------------|

e|-----------------------------------------------|
B|------------------------8-8---11p8-------------|
G|-5---8-8---5---8-8---5-------------10p8--------|
D|----------------------------------------10-----|
A|-----------------------------------------------|
E|-----------------------------------------------|

e|---------------------------------------|
B|-----------------------------------8---|
G|-5---8-8---5---8-8---5---8-8---5-------|
D|---------------------------------------|
A|---------------------------------------|
E|---------------------------------------|

e|---------------------------------------------|
B|---------------------------------------------|
G|-5---8-8---5---8-8---5---8-8---10p8----------|
D|------------------------------------10p8--10-|
A|---------------------------------------------|
E|---------------------------------------------|

e|----------------------------------------------------------------|
B|-------------------------------------------11p8--11p8--11p8-----|
G|-5---8-8---5---8-8---5---8-8---5----12--------------------------|
D|----------------------------------------------------------------|
A|----------------------------------------------------------------|
E|----------------------------------------------------------------|

e|---------------------------------------|
B|-----------------------------------8---|
G|-5---8-8---5---8-8---5---8-8---5-------|
D|---------------------------------------|
A|---------------------------------------|
E|---------------------------------------|

e|---------------------------------------------|
B|---------------------------------------------|
G|-5---8-8---5---8-8---5---8-8---10p8----------|
D|------------------------------------10p8--10-|
A|---------------------------------------------|
E|---------------------------------------------|

e|-------------------------------------------|
B|---------------------------------------11--|
G|-5---8-8---5---8-8---5---8-8---5---12--12--|
D|-------------------------------------------|
A|-------------------------------------------|
E|-------------------------------------------|

e|---------------------------------------------|
B|--------------------11-----------------------|
G|--7---8-10--12--10-----12--8-7---------------|
D|-------------------------------8p6--5--------|Repeat Two Times
A|---------------------------------------------|
E|---------------------------------------------|

e|-11-11-11-11-13--13--13--13------------------|
B|-9--9--9--9--11--11--11--11------------------|
G|---------------------------------------------|Repeat Four Times
D|---------------------------------------------|
A|---------------------------------------------|
E|---------------------------------------------|

e|---------------------------------------------|
B|--------------------11-----------------------|
G|--7---8-10--12--10-----12--8-7---------------|
D|-------------------------------8p6--5--------|Repeat Two Times
A|---------------------------------------------|
E|---------------------------------------------|

e|---15-15-15-11-----------17-17-17-13-------------|
B|---------------13--------------------15----------|
G|------------------13-12-----------------15-14----|
D|-------------------------------------------------|Repeat Four Times
A|-------------------------------------------------|
E|-------------------------------------------------|

e|--13-13-13-13---11---------|
B|--11-11-11-11---9----------|
G|---------------------------|
D|---------------------------|
A|---------------------------|
E|---------------------------|

e|-x-x-11-11-x-x------|
B|-x-x-9--9--x-x------|
G|--------------------|
D|--------------------|
A|--------------------|
E|--------------------|

AND THAT'S ALL FOLKS!
ANY CORRECTIONS ARE WELCOME
MY EMAIL IS bang.bang.mx@hotmail.com
AND http://www.myspace.com/a_terrorpocket
Tap to rate this tab
# A B C D E F G H I J K L M N O P Q R S T U V W X Y Z