Song name
# A B C D E F G H I J K L M N O P Q R S T U V W X Y Z

The Whitest Boy Alive - Timebomb tab

Song: Time Bomb
Artist: The Whitest Boy Alive
Album: Rules

hey mates, once again here i come with a new song,
is really easy to learn and really nice
cheers


e|----------------------------------------------------------------|
B|--7--5--7--5--5--3--5--3--7--5--7--5--5--3--5--3-----0----------|
G|----------------------------------------------------------------|
D|----------------------------------------------------------------|
A|----------------------------------------------------------------|
E|----------------------------------------------------------------|

Time Bomb, Time Bomb
Ohh Ohh
Time Bomb, Time Bomb

Time Bomb, Time Bomb
Time Bomb, Time Bomb
Ohh Ohh

Time Bomb, Time Bomb...



in this part use palm mute
e|---2-2-2-2---|
B|---3-3-3-3---|
G|---2-2-2-2---|
D|---2-2-2-2---|
A|-------------|
E|-------------|


e|---2-x-5-x-4-x-2--|
B|---3-x-6-x-5-x-3--| repeat the necesary times (sorry for my bad english)
G|---2-x-5-x-4-x-2--|
D|---2-x-5-x-4-x-2--|
A|------------------|
E|------------------|


e|---2-5-4-------------|
B|---3-6-5-------------|
G|---2-5-4-------------|
D|---2-5-4-------------|
A|---------------------|
E|---------------------|

e|----------------------------------------------------------------|
B|--7--5--7--5--5--3--5--3--7--5--7--5--5--3--5--3-----0----------|
G|----------------------------------------------------------------|
D|----------------------------------------------------------------|
A|----------------------------------------------------------------|
E|----------------------------------------------------------------|

e|-(12)------(19)--|
B|------(12)-(19)--|
G|-----------------|
D|-----------------|
A|-----------------|
E|-----------------|

e|---2-2-2-2---|
B|---3-3-3-3---|
G|---2-2-2-2---|
D|---2-2-2-2---|
A|-------------|
E|-------------|


e|---2-x-5-x-4-x-2--|
B|---3-x-6-x-5-x-3--|
G|---2-x-5-x-4-x-2--| repeat the necesary times (sorry for my bad english)
D|---2-x-5-x-4-x-2--|
A|------------------|
E|------------------|

e|---2-5-4-------------|
B|---3-6-5-------------|
G|---2-5-4-------------|
D|---2-5-4-------------|
A|---------------------|
E|---------------------|

have a nice day!
Tap to rate this tab
# A B C D E F G H I J K L M N O P Q R S T U V W X Y Z