The Whitest Boy Alive - Keep A Secret tab

THE WHITEST BOY ALIVE  -  KEEP A SECRET  -  Tab by Buzz L!GHTYEAR


Basic Chords: 

 |-C#7--Eadd9--C#7---F#-F#m-|

E|--------4-----------2--2--|
H|--2-----5-----2-----2--2--|
G|--4-----4-----4-----3--2--|   throughout almost every part of the song
D|--3-----4-----3-----4--4--|
A|--4-----------4-----4-----|
E|--------------------------|

Slight Variation shortly before "I can't keep it inside":

 |-C#7--Eadd9--C#7-|
 
E|--------4-----7--x|
H|--2-----5-----6--x|
G|--4-----4-----6--x| 
D|--3-----4---------|
A|--4---------------|
E|------------------|


Interlude:

|----------------------|----------------------|----------------------|----------------------|
|----------------------|----------------------|----------------------|----------------------|
|--11-11-11------------|--11-11-11------------|--11-11-11------------|-----------8-9--------|
|-----------9-11-11-11-|-----------9-11-11-11-|-----------9-11-11-11-|--11-11-11------------|
|----------------------|----------------------|----------------------|----------------------|
|----------------------|----------------------|----------------------|----------------------|

Variations of Interlude:

a)                          b)
|----------------------|   |----------------------|
|----------------------|   |----------------------|
|----------------------|   |--12-12-12------------|
|--13-13-13------------|   |----------------------|
|-----------9-11-11-11-|   |-----------9-11-11-11-|
|----------------------|   |----------------------|
|----------------------|   |----------------------|


Get the feel for a mellow solo in  C#-Minor-Pentatonic ( + Blue Note if you like) 
or C# Mixolydian (for C#7's sake).
Erlend sticks to the Penta most of the time I think.

This is my first Tab. Please comment and review thoroughly! =) 
Greetings, Buzz  
Tap to rate this tab
 
# A B C D E F G H I J K L M N O P Q R S T U V W X Y Z