The Whitest Boy Alive - Borders tab

                    Section A                    Section B




"I need it every day"                "I blame it on you"
        e |--------------------------------|--------------------------------|
        B |--------------------------------|--------------------------------|
        G |--------------------------------|--------------------------------|
        D |----9-----0-----0-----0---0---0-|----9-----0-----0-----0---0---0-|
        A |7-----------9-----0-----9---7---|7-----------9-----0-----9---7---|
        E |------7-------------------------|------7-------------------------|





                    Section C                    Section D




"You always have control"                "Now I don't"
        e |--------------------------------|--------------------------------|
        B |--------------------------------|--------------------------------|
        G |--------------------------------|--------------------------------|
        D |----9-----0-----0-----0---0---0-|7----7----7----7----7--7--7--7--|
        A |7-----------9-----0-----9---7---|--------------------------------|
        E |------7-------------------------|--------------------------------|


Keep repeating from Section A-D





Below are Slight alterations of Section D notes, play which ever you feel by ear
e |--------------------------------|
B |--------------------------------|
G |--------------------------------|
D |7-----7-----7---------0---0---0-|
A |------------------------9---7---|
E |----------------7---------------|

e |--------------------------------|
B |--------------------------------|
G |--------------------------------|
D |7---7-----------0-----0---0---0-|
A |-----10--10-9-----0-----9---7---|
E |--------------------------------|

e |--------------------------------|
B |--------------------------------|
G |--------------------------------|
D |----------------0-----0---0---0-|
A |7---7-------9-----0-----9---7---|
E |-----10--10---------------------|
Tap to rate this tab
 
# A B C D E F G H I J K L M N O P Q R S T U V W X Y Z