The Whitest Boy Alive - All Ears tab

visit youtube.com\KrisTubeDotCom 
I will upload videos of me playing these tabs, if reading it just doesnt quite cut it


Bass Line Played thoughout the entire song.



"Im so happy you called,    I really needed a break"
     G |------------------------------------------------|
     D |------7-----------------------9-----------------|
     A |--5-------5-------7---5---7-------7-------5-----|
     E |--------------5-----------------------3-------3-|



"From all the people I see,  All the people I spend time with
     G |------------------------------------------------|
     D |------7-----------------------9-----------------|
     A |--5-------5-------7---5---7-------7-------------|
     E |--------------5-----------------------3---3---3-|



Guitar Section A (0:01)

     e |------------------------------------------------|
     B |------------------------------------------------|
     G |---14--------------11--14-----------------------|
     D |12--------14----14------------------------------|
     A |--------------------------14--12---9--7-10--9---|
     E |------------------------------------------------|

     e |------------------------------------------------|
     B |------------------------------------------------|
     G |------------------------------------------------|
     D |---12---------------12----------------0---------|
     A |-9---10----------9-----12---10------------------|
     E |------------------------------------------------|



Guitar Section B (1:09)


     e |------------------------------------------------|
     B |------------------------------------------------|
     G |--------------12--11-----------------11---------|
     D |--14-----12--------------14-------12------------|
     A |------------------------------------------------|
     E |------------------------------------------------|

     e |------------------------------------------------|
     B |------------------------------------------------|
     G |--14---16---14---------14----16---14------------|
     D |-----------------14-------------------14---12---|
     A |------------------------------------------------|
     E |------------------------------------------------|

     e |-----------------------------------------2------|
     B |----------------------------------3-------------|
     G |-------------2---4----0---2---4-----------------|
     D |-11--0----4-------------------------------------|
     A |------------------------------------------------|
     E |------------------------------------------------|



Guitar Section C (2:34)

     e |------------------------------------------------|
     B |------------------------------------------------|
     G |---------------------12--11-----14--12-11-------|
     D |------------------------------------------14----|
     A |--12--12--12--14--14----------------------------|
     E |------------------------------------------------|

     e |------------------------------------------------|
     B |------------------------------------------------|
     G |------------------------------------------------|
     D |------------------12-------------12-------------|
     A |--14----------12---------------12---------------|
     E |---------14-----------15-----14----15----14-----|

     e |------------------------------------------------|
     B |------------------------------------------------|
     G |--16--14--------16---------16--14---------16----|
     D |-------------14---16-------------------14-----16|
     A |------------------------------------------------|
     E |------------------------------------------------|


visit youtube.com\KrisTubeDotCom 
I will upload videos of me playing these tabs, if reading it just doesnt quite cut it
Tap to rate this tab
 
# A B C D E F G H I J K L M N O P Q R S T U V W X Y Z