Song name
# A B C D E F G H I J K L M N O P Q R S T U V W X Y Z

The Whitest Boy Alive - Golden Cage tab

Hey there!, I will write here the tab of the verse of this amazing song, the intro, 
solo, etc you can find it in other tabs posted here.

-------------------------------------------------------------------------------
                             GOLDEN CAGE - The Whitest Boy Alive
-------------------------------------------------------------------------------
Tabbed by: Javier Neri
E-mail: javiernerito@gmail.com

Tuning: Standard

Intro...

     ...So you no longer care if there's another day

e|--7------------------------------------------------|
B|--8------------------------------------------7-----|
G|--7------------------------------------------7--9--|
D|--9------------------------------------------7-----|
A|--7------------------------------------------------|
E|---------------------------------------------------|

     I guess I have been there, I guess I am there now

e|--7----------------------------------------------------12--|
B|--7---------------------------------------------7--10--12--|
G|--7---------------------------------------------7--9---9---|
D|--9---------------------------------------------7--7---9---|
A|-----------------------------------------------------------|
E|-----------------------------------------------------------|

     You knew what you wanted and you fought so hard

e|------------------------------------------------------------|
B|---------------------------------------------------7--5--8--|
G|---------------------------------------------------6--6--7--|
D|---------------------------------------------------7--7--9--|
A|---------------------------------------------------------7--|
E|------------------------------------------------------------|


Just to find yourself sitting in a golden cage

     In a golden cage

e|-----------------------5--7--7---7--7--|
B|--8-----------------7--5--7--7--10--7--|
G|--7-----------------7--6--7--7--7---7--|
D|--9-----------------7--7---------------|
A|--7------------------------------------|
E|---------------------------------------|

...Solo...

So of course I miss you and miss you bad
But I also felt this way when I was still with you

e|--------------------------------------------------|
B|----------------------------------------7--9--12--|
G|----------------------------------------7--7--11--|
D|----------------------------------------7--7--9---|
A|----------------------------------------------9---|
E|--------------------------------------------------|

Yes of course I miss you and miss you bad

e|---------------------------------------------------|
B|------------------------------------------5--------|
G|------------------------------------7--6-----------|
D|------------------------------------7--7-----------|
A|------------------------------------7--5-----5--7--|
E|---------------------------------------------------|

But I also felt this way when I was still with you

e|---------------------|
B|------------------5--|
G|------------------7--|
D|------------------5--|
A|------------------7--|
E|---------------------|

This city's no longer mine
There's sadness written on every corner

e|---------------------------------------------------------------|
B|-------------------------------8-------7------10------7--------|
G|-------------------------------7--X4---7--X2--7--X2---7--7--9--|
D|-------------------------------9-------9------9-------9--7--7--|
A|-------------------------------7-------7------7-------7--7--7--|
E|---------------------------------------------------------------|


************************************

| /   slide up
| \   slide down
| h   hammer-on
| p   pull-off
| ~   vibrato
| +   harmonic
| x   Mute note
| b   Bend
| pb  Pre-bend
| br  Bend release
| pbr Pre-bend release
| brb Bend release bend

************************************
Tap to rate this tab
 
# A B C D E F G H I J K L M N O P Q R S T U V W X Y Z