Song name
# A B C D E F G H I J K L M N O P Q R S T U V W X Y Z

The Wildbunch - Animal Attraction tab

-------------------------------------------------------------------------------
                             Animal Attraction - The Wildbunch
-------------------------------------------------------------------------------
Album: Rock Empire
Tabbed by: Mel
E-mail: melectricsix@gmail.com

The Wildbunch had to change their name to Electric Six in 2002. The Wildbunch were a 
five piece band formed in Detroit in 1995.
http://www.wikisix.co.uk/mediawiki/index.php?title=The_Wildbunch

This riff pretty much throughout
e]-----------------------------------|
B]--------8^------6^------4^------6^-|
B]-----------------------------------|
D]--10-10-----8-8-----6-6-----8-8----|
A]--10-10-----8-8-----6-6-----8-8----|
E]--8--8------6-6-----4-4-----6-6----| x3

Here she comes
Footloose and fancy free
You know she got to be
She got to be
The one for me
You know she got to be
She got to be
The one for me

e]-------------------------------|
B]-------------------------------|
G]-------------------------------|
D]--3\5--------------------------|
A]--3\5--------------------------|
E]--1\3---------------------1\8--|


You know Id go to the ends of the earth for her
You know Id take a
Slug in the gut for her
You know Id take a
Slug in the gut for her

Animal attraction
Animal attraction
Animal attraction

Lets get it on [x24]
Oh no!

Oh no.

Waah!
Tap to rate this tab
# A B C D E F G H I J K L M N O P Q R S T U V W X Y Z