Song name
# A B C D E F G H I J K L M N O P Q R S T U V W X Y Z

The Wilderness Of Maintoba - November tab

        Dm                          Am                           C
---1---------------1-------------------0---------------------------0-----------|
-----------3---------------3---1---------------1-----------1---------------1---|
---2---2-------2-------2-----------2-------2-------2---0-------0-------0-------|
-0-------0-------0-------0-----2-----2-------2-------------2-----2-------2-----|
-----0-------0-------0-------0---0-------0-------0---2---3---3-------3-------3-|
-------------------------------------------------------------------------------|
                 G
-----------------3-----------------|
---------0---------------0---------|
-0---0-------0-------0-------0---0-|  It then repeats the same pattern through
---2-----0-----0-------0-------0---|  the whole song.
-----------------------------------|
-------3---3-------3-------3-------|

www.thewildernessofmanitoba.com/
Tap to rate this tab
# A B C D E F G H I J K L M N O P Q R S T U V W X Y Z