Song name
# A B C D E F G H I J K L M N O P Q R S T U V W X Y Z

The Wilderness Of Manitoba - November tab

this is how it always sounds like to me, this is pretty much just repeated throughout 
the song...


dm                              am
e|----1----------------1---------|--------------0---------------------------|
B|-------------3---------------3-|----1------------------1---------1--------|
G|---------2-------2-------2-----|---------2--------2---------2-------------|
D|-----------0-------0-------0---|-----------2--------2---------2-----------|
A|-0--0--0-------0-------0-------|-0--0--0--------0---------0---------------|
E|-------------------------------|------------------------------------------|

   C                                       G
e|----------------0---------------------|-------------3---------------------|
B|----1----------------------1--------0-|----0-----------------0---------0--|
G|-----------0----------0---------0-----|---------0--------0--------0-------|
D|-------------2----------2---------2---|-----------0--------0--------0-----|
A|-3--3---3----------3----------3-------|-----------------------------------|
E|--------------------------------------|-3--3--3--------3-------3----------|

feel free to add your own little variations wherever you want, make it a little more 
interesting :)
Tap to rate this tab
# A B C D E F G H I J K L M N O P Q R S T U V W X Y Z