Song name
# A B C D E F G H I J K L M N O P Q R S T U V W X Y Z

The Winery Dogs - Im No Angel tab

-----------------------------------------------------------------------------
			     I'm No Angel-The Winery Dogs
-----------------------------------------------------------------------------
Tabbed by:jtarpley
Tuning:standard
The rest of the song (other than the solo) is fairly easy to figure out because there's 
just some power chords in the chorus.

e|-----------0---------------------------------------------------------------|
B|-------5---4b5-5-5br4-2-0-2-------2----------------------------------------|
G|-------4--------------------3b5r3---------4--------------------------------|
D|------------------------------------------4-----4\2------------------------|
A|-2h4-4---0------------------0-------------------4\2------------------------|
E|------------------------------------4b5r4---0h2----------------------------|



************************************

| /   slide up
| \   slide down
| h   hammer-on
| p   pull-off
| ~   vibrato
| +   harmonic
| x   Mute note
| b   Bend
| pb  Pre-bend
| br  Bend release
| pbr Pre-bend release
| brb Bend release bend

************************************
Tap to rate this tab
# A B C D E F G H I J K L M N O P Q R S T U V W X Y Z