Song name
# A B C D E F G H I J K L M N O P Q R S T U V W X Y Z

The Wizard Of Oz - If I Only Had A Heart tab

This also works for If I Only Had A Brain/ The Nerve.
When the song gets to the point "I hear a beat... How sweet" I like to pause and tap on 
the guitar body to mimic 4 heartbeats.
This is my first tab from scratch, so it's definitely not perfect! :]

If I Only Had a Heart
[Simplified version]
No capo

e|---------------------------------------------------------------|
B|---------------------------------------------------------------|
G|------------------------20--------20-----420-------------------|
D|2352----------------------20--------20------320----------------|
A|----3575-5730-2300----------30-320----322------33333-----------|
E|------------------33333-------3--------------------------------|

e|---------------------------------------------------------------|
B|---------------------------------------------------------------|
G|------------------------20--------20-----420-------------------|
D|2352----------------------20--------20------320----------------|
A|----3575-5730-2300----------30-320----322------33333-----------|
E|------------------33333-------3--------------------------------|

e|---------------------------------------------------------------|
B|---------------------------------------------------------------|
G|--212402---0-------------02----212-----------------------------|
D|--------333-2-320-02----2---------2352-02-2--------------------|
A|33---------------4--23-3--------------3--3-302300--------------|
E|-------------------------------------------------33333---------|

e|---------------------------------------------------------------|
B|---------------------------------------------------------------|
G|20--------20------420------------------------------------------|
D|--20--------320------320---------------------------------------|
A|----30-320-----322------33333----------------------------------|
E|------3--------------------------------------------------------|
Tap to rate this tab
 
# A B C D E F G H I J K L M N O P Q R S T U V W X Y Z