The Wohlstandskinder - 6 Millionen Und Ich chords

Highlighted       Show chord diagrams
B A
neunzehn-neunundneunzig - die welt sie schien zu stehn
C#m
es war sommer ich hatte fieber
 B  A
am baggersee wär ich viel lieber
C#m
dachten sie
      B
doch es war ein übler plan
      A
denn ich baute in mir viren an
C#m
die, einmal übertragen,
  B A C#m
keine überlebenschancen gaben
    B
und dann begann der sturm
     A
nenn es bosheit oder glück
 C#
sechs milliarden warn verschwunden
  B           A
und kamen nie mehr zurück


 G#m       F#
wenn ich heute drüber nachdenkt
      E F#
weine ich


     C#m   E  F# B
doch das ist nun mal die gefahr   oh oh ja
     C# E
für dich und mich war das schon klar
       G#m     F#   E
ob wir wollten oder nicht
 G#m      F#       E
auch ein schatten braucht das licht
     F#      C#m
doch sechs milliarden nicht


B A C#

    B
ich kann es einfach nicht beschreiben
     A
ich ging durch städte und passagen
  C#
leergefegt - wo einst das treiben
A       C#m
bleiben nur endzeit-collagen
      B
ihre welt war wohl zu groß
A
für einen kleinen gedanken wie diesen
     C#m
nur die reue ist der trost
     B    A
ich werd ihn wohl allein genießen


wenn ich heute drüber ...

Zwischenteil:

  cis            gis           cis                   gis
E|----------------------------------------------------------------------|
B|----------------------------------------------------------------------|
G|-9-9-8-8-6-6---9-9-8-8-6-6---9-9-8-8-11-11-9-9-8-8 11-11-9-9-8-8-6----|
D|-------------6-------------6---------------------------------------6--|
A|----------------------------------------------------------------------|
E|----------------------------------------------------------------------|

  cis      B     E      Fis  cis       B        E           gis  A   B
E|-----------------------------------------------------------------------|
B|-----------------------------------------------------------------------|
G|-----------------------------------------------------------------------|
D|-----------------------------------------------------------------------|
A|-2/4--4--4/6--2/7--7-2/9--2/4--6--7--6--7--9--11--9--7/9--11---12--14--|
E|-----------------------------------------------------------------------|

   gis   Fis  B     E    Fis gepickt
E|-------------------------|
B|-------------------------|
G|-------------------------|
D|-------------------------|
A|-11----9----14----7----9-|
E|-------------------------|

B

doch das ist nunmal die Gefahr ...
Tap to rate this tab
 
# A B C D E F G H I J K L M N O P Q R S T U V W X Y Z