Song name
# A B C D E F G H I J K L M N O P Q R S T U V W X Y Z

The Wombats - Here Comes The Anxiety tab

E ---2----0----2---------|
B ---3----2----3---------|
G ---4----2----2---------|
D ---0----2----0---------| X 2
A -----------------------|
E -----------------------|

E ---2----0----3----3----0----5-|
B ---3----2----0----0----0----5-|
G ---4----2----0----0----0----6-|
D ---0----2----0----0----2----7-|
A -------------2----2----2----7-|
E -------------3----2----0----5-|

E ---10-10-10-10-10-10-10-10-7-7-7-7-7-7-7-7-10-10-10-10-10-10-10-10-10-|
B ---12-12-12-12-12-12-12-12-8-8-8-8-8-8-8-8-12-12-12-12-11-11-11-11-12-|
G ---12-12-12-12-12-12-12-12-9-9-9-9-9-9-9-9-12-12-12-12-12-12-12-12-12-|
D ---12-12-12-12-12-12-12-12-9-9-9-9-9-9-9-9-12-12-12-12-12-12-12-12-12-|
A ---10-10-10-10-10-10-10-10-7-7-7-7-7-7-7-7-10-10-10-10-10-10-10-10-12-|
E ----------------------------------------------------------------------|

E -7----5---|
B -9----5---|
G -9----6---|
D -9----7---|
A -7----7---|
E ------5---|

At the end of the chorus is a sort of breakdown where you play D, then down one fret, 
playing the open strings.

Repeat Verse.

Repeat chorus.

At the end of the chorus you play D quietly until it changes, you play power chords:

E -----------------------------|
B -----------------------------|
G -11-9------------------------|
D -11-9-12-11-12-7-7-7-7   X 2-|
A -9--7-12-11-12-7-7-7-7-------|
E ------10--9-10-5-5-5-5-------|

E 7------5--|
B 8------5--|
G 9------6--|
D 9------7--|
A 7------7--|
E -------5--|

I think this tab is perfect apart from a few bits, you can check any of it when he plays 
a radio station on YouTube... http://www.youtube.com/watch?v=cew6O5ZzNEs
Tap to rate this tab
# A B C D E F G H I J K L M N O P Q R S T U V W X Y Z