Guitaretab - guitar tabs
Song name
# A B C D E F G H I J K L M N O P Q R S T U V W X Y Z

The Wombats - Lets Dance To Joy Division Acoustic tab

-----------------------------------------------------------------------------
Lets dance to Joy Division x the Wombats
-----------------------------------------------------------------------------
Tabbed by: whatsernamex

Tuning: Standard.

While i was watching an acoustic session of this song, i saw Matthew playing something 
a C-chord and well.. i think it sounds pretty cool the way i figured it out :]
You can use a capo if you want to, the wombats didnt use one though..

Intro:

e|------------(1)-(3)-------------------------------------------------------|
B|--------3----1---1--------------------------------------------------------|
G|---4----4----2---0--------------------------------------------------------|
D|---5----4----3---2--------------------------------------------------------|
A|---5---2---3----3---------------------------------------------------------|
E|--3-----------------------------------------------------------------------|
[ Tab from: http://www.guitaretab.com/t/the-wombats/112313.html ]
Verses:
e|-------------(1)-(3)-----------------------------------------------------|
B|---------3----1----1------------------------------------------------------|
G|----4----4----2----0------------------------------------------------------|
D|----5----4----3----2------------------------------------------------------|
A|----5----2----3----3------------------------------------------------------|
E|----3---------------------------------------------------------------------|

Chorus and bridge:
e|-----------1--------------------------------------------------------------|
B|-------3---1----5---------------------------------------------------------|
G|---4---4---2----5---------------------------------------------------------|
D|---5---4---3----5---------------------------------------------------------|
A|---5---2---3----3---------------------------------------------------------|
E|---3-------1--------------------------------------------------------------|


Ta-daaah.


| /  slide up
| \  slide down
| h  hammer-on
| p  pull-off
| ~  vibrato
| +  harmonic
| x  Mute note
=============================================================================
Related for Lets Dance To Joy Division Acoustic tab