Guitaretab - guitar tabs
Song name
# A B C D E F G H I J K L M N O P Q R S T U V W X Y Z

The Wombats - Dr Suzanne Mattox Phd tab

-----------------------------------------------------------------------------
                    The Wombats  Dr. Suzanne Mattox Phd
-----------------------------------------------------------------------------
Tabbed by:Luke Des
Email:lukedes@tiscali.co.uk

Tuning:EADGBe

My first tab so be nice plz :s. i think its right the solo bit might be a bit wrong.

Enjoy!

Verse
E|----x------------------------|
B|----x------------------------|
G|----x------------------------|
D|----x---scratch-as-needed----|
A|----x------------------------|
E|-----------------------------|

E|----9------7------------|
B|----9------7------------|
G|----11-----9------------|
D|----11-X12-9-X12--------|
A|----9------7------------|
E|------------------------|

Pre-chorus
E|----10--9--7--7--7--7--7--7--7--7------|
B|----10--9--7--7--7--7--7--7--7--7------|
G|----12--11-9--9--9--9--9--9--9--9------| X2
D|----12--11-9--9--9--9--9--9--9--9------|
A|----10--9--7--7--7--7--7--7--7--7------|
E|---------------------------------------|

Chorus
E|----5-----4-4-4-3-3-3-5-----3-3-3-5-5-7-5-----3-----|
B|----5-----4-4-4-3-3-3-5-----3-3-3-5-5-7-5-----3-----|
G|----7-X11-6-6-6-4-4-4-7-X11-4-4-4-6-6-6-6-X16-3-X16-|
D|----7-----6-6-6-5-5-5-7-----5-5-3-7-7-7-7-----5-----|
A|----5-----4-4-4-5-5-5-5-----5-5-5-7-7-7-7-----5-----|
E|----------------3-3-3-------3-3-3-5-5-5-5-----3-----|

E|----5-----4-4-4-3-3-3-5-----3-3-3-5-5-7-x-x-xx-|
B|----5-----4-4-4-3-3-3-5-----3-3-3-5-5-7-x-x-xx-|
G|----7-X11-6-6-6-4-4-4-7-X11-4-4-4-6-6-6-x-x-xx-|
D|----7-----6-6-6-5-5-5-7-----5-5-3-7-7-7x-x-xx-|
A|----5-----4-4-4-5-5-5-5-----5-5-5-7-7-7--------|
E|----------------3-3-3-------3-3-3-5-5-5-x-x-xx-|

Verse 2

Keys

Pre-chorus

Chorus
E|----5-----4-4-4-3-3-3-5-----3-3-3-5-5-7-5-----3-----|
B|----5-----4-4-4-3-3-3-5-----3-3-3-5-5-7-5-----3-----|
G|----7-X11-6-6-6-4-4-4-7-X11-4-4-4-6-6-6-6-X16-3-X16-|
D|----7-----6-6-6-5-5-5-7-----5-5-3-7-7-7-7-----5-----|
A|----5-----4-4-4-5-5-5-5-----5-5-5-7-7-7-7-----5-----|
E|----------------3-3-3-------3-3-3-5-5-5-5-----3-----|
[ Tab from: http://www.guitaretab.com/t/the-wombats/176458.html ]
E|----5-----4-4-4-3-3-3-5-----3-3-3-5-5-7-x-x-xx-|
B|----5-----4-4-4-3-3-3-5-----3-3-3-5-5-7-x-x-xx-|
G|----7-X11-6-6-6-4-4-4-7-X11-4-4-4-6-6-6-x-x-xx-|
D|----7-----6-6-6-5-5-5-7-----5-5-3-7-7-7x-x-xx-|
A|----5-----4-4-4-5-5-5-5-----5-5-5-7-7-7--------|
E|----------------3-3-3-------3-3-3-5-5-5-x-x-xx-|



E|----5-----4-4-4-3-3-3-5-----3-3-3-5-5-7-5-----3-----|
B|----5-----4-4-4-3-3-3-5-----3-3-3-5-5-7-5-----3-----|
G|----7-X11-6-6-6-4-4-4-7-X11-4-4-4-6-6-6-6-X16-3-X16-|
D|----7-----6-6-6-5-5-5-7-----5-5-3-7-7-7-7-----5-----|
A|----5-----4-4-4-5-5-5-5-----5-5-5-7-7-7-7-----5-----|
E|----------------3-3-3-------3-3-3-5-5-5-5-----3-----|

Solo bit:

E|--7-7-5-5-5----5-5-5-2-----------|
B|------------7----------5-7-5-----|
G|---------------------------------|
D|---------------------------------| X2
A|---------------------------------|
E|---------------------------------|

Build up

After
E|--7-7-5-5-5----5-5-5-2-----------|
B|------------7----------5-7-5-----|
G|---------------------------------|
D|---------------------------------| X2
A|---------------------------------|
E|---------------------------------|

E|----5-----4-4-4-3-3-3-5-----3-3-3-5-5-7-5-----3-----|
B|----5-----4-4-4-3-3-3-5-----3-3-3-5-5-7-5-----3-----|
G|----7-X11-6-6-6-4-4-4-7-X11-4-4-4-6-6-6-6-X16-3-X16-|
D|----7-----6-6-6-5-5-5-7-----5-5-3-7-7-7-7-----5-----|
A|----5-----4-4-4-5-5-5-5-----5-5-5-7-7-7-7-----5-----|
E|----------------3-3-3-------3-3-3-5-5-5-5-----3-----|

E|----5-----4-4-4-3-3-3-5-----3-3-3-5-5-7-5-----3-----|
B|----5-----4-4-4-3-3-3-5-----3-3-3-5-5-7-5-----3-----|
G|----7-X11-6-6-6-4-4-4-7-X11-4-4-4-6-6-6-6-X16-3-X16-|
D|----7-----6-6-6-5-5-5-7-----5-5-3-7-7-7-7-----5-----|
A|----5-----4-4-4-5-5-5-5-----5-5-5-7-7-7-7-----5-----|
E|----------------3-3-3-------3-3-3-5-5-5-5-----3-----|

Break
E|----5----|
B|----5----|
G|----7----|
D|----7----|
A|----5----|
E|---------|

E|--x--|
B|--x--|
G|--x--| Scratch
D|--x--|
A|--x--|
E|--x--|

E|----5-----5----9-----5----9-----|
B|----5-----5----9-----5----9-----|
G|----7-X32-7-X8-11-X8-7-X8-11-X8-|
D|----7-----7----11----7----11----|
A|----5-----5----9-----5----9-----|
E|--------------------------------|
Related for Dr Suzanne Mattox Phd tab