Song name
# A B C D E F G H I J K L M N O P Q R S T U V W X Y Z

The Wombats - My Circuitboard City tab

-------------------------------------------------------------------------------
			     My Circuitboard City - The Wombats
-------------------------------------------------------------------------------
Tabbed by: Daniel Waite
Email: dannywaite@hotmail.com

Tuning: Standard

Intro

e|---------------------------------------------------11--12-12----7-7-7-7----|
B|---------------------------------------------------11--12-12----7-7-7-7----|
G|----------------------11-8-------------------------12--13-13----8-8-8-8----|
D|-----9-11-------9-11-------------9-11-------9-11---13--14-14----9-9-9-9----|
A|--99---------99---------------99---------99--------13--14-14----9-9-9-9----|
E|---------------------------------------------------11--12-12----7-7-7-7----|

Verse

e|-11--12-12----7-7-7-7--------------------------------------------------|
B|-11--12-12----7-7-7-7--------------------------------------------------|
G|-12--13-13----8-8-8-8-----(repeated though out with a bit of-----------|
D|-13--14-14----9-9-9-9-------variation as sometimes the first-----------|
A|-13--14-14----9-9-9-9--------------chord is missed out)----------------|
E|-11--12-12----7-7-7-7--------------------------------------------------|

i'll do a full version when i've more time but that'll do for now


| /  slide up
| \  slide down
| h  hammer-on
| p  pull-off
| ~  vibrato
| +  harmonic
| x  Mute note
===============================================================================
Tap to rate this tab
# A B C D E F G H I J K L M N O P Q R S T U V W X Y Z