Song name
# A B C D E F G H I J K L M N O P Q R S T U V W X Y Z

The Wombats - My Circuitboard City tab

--------------------------------------------------------------------------              
My Circuitboard City - The Wombats
      --------------------------------------------------------------------------
Tabbed by: Sean
Pretty simple tune- legend song- fun to play.

Tuning: EADGBe

Intro:
e|---------------------------------------------------------------------------|
B|---------------------------------------------------------------------------|
G|---------------------------------------------------------------------------|
D|---------11----------16-13----------11--x----------16-13-------------------
A|11-11-14----11-11-14-------11-11-14-----x-11-11-14-------------------------
E|---------------------------------------------------------------------------|

Verse:
e|11--11--11-----------------------------------------------------------------|
B|12--12--12-----------------------------------------------------------------|
G|13--13--13---8-8-8---------------------------------------------------------|
D|13--13--13---9-9-9--------REPEAT-------------------------------------------|
A|11--11--11---9-9-9-------------------------------- ------------------------|
E|-x---x--x----7-7-7---------------------------------------------------------|

Pre- chorus/ chorus:
e|---------------------------------------------------------------------------|
B|---------------------------------------------------------------------------|
G|14--------11---------------------------------------------------------------|
D|14--9--11-11---X2--9-9-9-9-9-9-9-9-11--------------------------------------|
A|11--9--11-9--------9-9-9-9-9-9-9-9-11--------------------------------------|
E|----7--9-----------7-7-7-7-7-7-7-7-9---------------------------------------|
“Have a dance, Have a Drink…”


| /  slide up
| \  slide down
| h  hammer-on
| p  pull-off
| ~  vibrato
| +  harmonic
| x  Mute note
===============================================================================
Tap to rate this tab
 
# A B C D E F G H I J K L M N O P Q R S T U V W X Y Z