Song name
# A B C D E F G H I J K L M N O P Q R S T U V W X Y Z

The Wombats - How I Miss Sally Bray tab

Cheers. This song hasnt even been released by the wombats yet. I tabbed the song to this video
http://www.youtube.com/watch?v=xgERAVLkjKI . Cheers. joetp_10@msn.com

Intro
E|--------------------------------------|
B|--------------------------------------|
G|--------------------------------------|
D|--------------------------------------|
A|--------2--3--2--3--------3--3--2--0--|
E|--3--3--------------0--0--------------| x3
then
E|--------|
B|--------|
G|--------|
D|--5--7--|
A|--5--7--|
E|--3--5--|
Verse
Basically G   Em  C but using various chord positions.
E|-------------|
B|-------------|
G|--12--9------|
D|--12--9--10--|
A|--10--7--10--|
E|---------8---|
Prechorus
Ignorance is bliss etc.
E|----------|
B|----------|
G|----------|
D|--12--10--|
A|--12--10--|
E|--10--8---|

Chorus
E|------------------------|
B|------------------------|
G|------------------------|
D|--5--5--10--9-----------|
A|--5--5--10--9-----------|
E|--3--3--8---7--00000000-|

After Chorus
E|---------------------------------------------------------------------------|
B|---------------------------------------------------------------------------|
G|---------------------------------------------------------------------------|
D|---------------------------------------------------------------------------|
A|--------2--3--2--3-----3--3--2--0--14--14------10--10--10--14--14------10--|
E|--3--3--------------0----------------------12----------------------12------|
Verse again (High neck inversions)
Prechorus
Chorus

Bridge
How i miss, how i miss etc..
E|-----------------------|
B|-----------------------|
G|--0--4--4--3--3--2--2--|
D|-----------------------|
A|-----------------------|
E|-----------------------| couldnt count how many times..
Intro again
Back to chorus
End on chorus, end on C
Tap to rate this tab
# A B C D E F G H I J K L M N O P Q R S T U V W X Y Z