Song name
# A B C D E F G H I J K L M N O P Q R S T U V W X Y Z

The Wombats - Moving To New York tab

-------------------------------------------------------------------------------
			     MOVING TO NEW YORK INTRO - The Wombats
-------------------------------------------------------------------------------
Tabbed by: Wouter van Dijke
Email: woutervdijke@gmail.com

Tuning: standard

Just the intro to Moving to New York, this is what I believe sounds right.
I also included the strumming pattern I mostly use.
I'm not sure of all this, but I hope it helps at least someone!

e|-8-8-8-8-|----------------|-7--7--7--7--|-7-7-7-7-7-|
B|-9-9-9-9-|-8--8--8--8--8--|-------------|-8-8-8-8-8-|
G|-9-9-9-9-|-9--9--9--9--9--|-9--9--9--9--|-7-7-7-7-7-|
D|---------|-10-10-10-10-10-|-10-10-10-10-|-----------|
A|---------|----------------|-------------|-----------|
E|---------|----------------|-------------|-----------|
   D D U D   D  D  D  U  D    D  D  U  D    D D D U D
Tap to rate this tab
 
# A B C D E F G H I J K L M N O P Q R S T U V W X Y Z