Song name
# A B C D E F G H I J K L M N O P Q R S T U V W X Y Z

The Wombats - Jump Into The Fog tab

Awesome song :) - Tab's for intro synth

  e -----12-----11---------------------------------------------|
  B -------------------11--------------------------------------|
  G -----------------------------------------------------------|
  D -----------------------------------------------------------|
  A -----------------------------------------------------------|
  E -----------------------------------------------------------|


  e -----9-----------------------------------------------------|
  B -------------12--------9-----------------------------------|
  G -----------------------------------------------------------|
  D -----------------------------------------------------------|
  A -----------------------------------------------------------|
  E -----------------------------------------------------------|
Tap to rate this tab
 
# A B C D E F G H I J K L M N O P Q R S T U V W X Y Z