Song name
# A B C D E F G H I J K L M N O P Q R S T U V W X Y Z

The Wombats - Kill The Director tab

-------------------------------------------------------------------------------
			     KILL THE DIRECTOR-The Wombats
-------------------------------------------------------------------------------
So this is my first tab, but don't go easy (I'm sure you won't!)
I noticed that only one person had tried to tab this awesome song so thought I'd give it 
a shot!
Don't forget to rate!!

Tabbed by: A7XSGZV

Tuning:Standard (EADGBe)

Intro Part 1:
Guitar 1:
e|-x----
B|-x----
G|-x----
D|-x-9--
A|-x-7--
E|-x-0--

Intro Part 2:
Guitar 1:
e|-------------------------------|x2
B|-99-99-99-77-------1111--1111--|
G|-99-99-99-88-88-88-1111--1111--|
D|-99-99-99-88-99-99-1111--1111--|
A|-77-77-77-66-99-99-9-9---9-9---|
E|-------------77-77-------------|
Guitar 2
e|------------------------------|x2
B|----------77------------------|
G|----------88-88-88------------|
D|-22-22-22-88-99-99-4-4---4-4--|
A|-22-22-22-66-99-99-4-4---4-4--|
E|-00-00-00----77-77-2-2---2-2--|

Verse 1:
Guitar 1:
e|-7-------7----------|x2
B|-9-------7----------|
G|-9-------8-------8--|
D|-9-------9-------8--|
A|-7-------9-------9--|
E|---------7-------6--|

Pre chorus 1:
Guitar 1:
e|--------------------------------------------------------------|
B|-99-99-99-99-------1111-1111--99-99-99-99-------11-11-11-11\--|
G|-99-99-99-99-88-88-1111-1111--99-99-99-99-88-88-11-11-11-11\--|
D|-99-99-99-99-99-99-1111-1111--99-99-99-99-99-99-11-11-11-11\--|
A|-77-77-77-77-99-99-9-9--9-9---77-77-77-77-99-99-9--9--9--9-\--|
E|-------------77-77------------------------77-77---------------|

Chorus:
Guitar 1:
e|----------------------------------------------|x2
B|-99999999-77777777----------1111111111111111--|
G|-99999999-88888888-88888888-1111111111111111--|
D|-99999999-88888888-99999999-1111111111111111--|
A|-77777777-66666666-99999999-9-9-9-9-9-9-9-9---|
E|-------------------77777777-------------------|

Post Chorus:
Guitar 1:
e|-7-7-7---9-9-9-9-\--|
B|-9-9-9---11111111\--|
G|-9-9-9-8-11111111\--|
D|-9-9-9-9-11111111\--|
A|-7-7-7-9-9-9-9-9-\--|
E|-------7------------|
Guitar 2:
e|--------------------|
B|---------------17\--|
G|-------15b-----15\--|
D|-------16b----------|
A|--------------------|
E|--------------------|

Verse 2:
Repeat Intro Part 2 (Once with only Guitar 1, then with both guitars once)

Pre Chorus 2:
Guitar 1:
e|-----------------------------------------------------------------|
B|-------------------11111111111111111111111111111111-99-99-99-99--|
G|-99999999-99999999-11111111111111111111111111111111-99-99-99-99--|
D|-99999999-99999999-11111111111111111111111111111111-99-99-99-99--|
A|-77777777-77777777-9-9-9-9-9-9-9-9-9-9-9-9-9-9-9-9--77-77-77-77--|
E|-----------------------------------------------------------------|
Guitar 2:
e|-----------------------------------------------------------------|
B|-----------------------------------------------------------------|
G|-99999999-99999999-11111111-13131313-11111111-14141414-----------|
D|-xxxxxxxx-xxxxxxxx-x-x-x-x--x-x-x-x--x-x-x-x--x-x-x-x------------|
A|-77777777-77777777-9-9-9-9--11111111-9-9-9-9--12121212-----------|
E|-----------------------------------------------------------------|

Guitar 1:
e|---------------------------------------------|
B|-----------------------11--------------------|
G|-8---------------------11--------------------|
D|-9---------------------11--------------------|
A|-9---------------------9---------------------|
E|-7-------------------------------------------|
Guitar 2:
e|-------14--19-18-16-14------------16-14------|
B|-----16-------------------------14------17/--|
G|---16----16-----------------15---------------|
D|--------------------------16--16-------------|
A|---------------------------------------------|
E|---------------------------------------------|

Chorus 2: Same as Chorus 1

Post Chorus 2:
Guitar 1 same as post chorus 1
Guitar 2:
e|----------------------|
B|--------------17btr\--|
G|--15b---------15btr\--|
D|--16b-----------------|
A|----------------------|
E|----------------------|

Bridge:
Guitar 1:
e|---------------11--11-------|
B|---------------12--12--11\--|
G|-88888888-8888-13--13--11\--|
D|-99999999-9999-13--13--11\--|
A|-99999999-9999-11--11--9-\--|
E|-77777777-7777--------------|

Then Bass Riff x2

Then:
Guitar 2:
e|-------------------------------------------------------------------|x4
B|-------------------------------------------------------------------|
G|---9---9---9---9---8---8---8---8---13--13--13--13--14--14--14--14--|
D|-------------------------------------------------------------------|
A|-7---7---7---7---6---6---6---6---11--11--11--11--12--12--12--12----|
E|-------------------------------------------------------------------|

e|---------------------------------------------------|
B|---------------------------------------------------|
G|---9---9---9---9---8---8---8---8---13--13--13--13--|
D|---------------------------------------------------|
A|-7---7---7---7---6---6---6---6---11--11--11--11----|
E|---------------------------------------------------|

Then after Guitar 2 x2 Guitar 1 enters:
Guitar 1:
e|--------------------------------------------------------------------|x2
B|-9-9-9-9-9-9-9-9-7-7-7-7-7-7-7-7-1212121212121212-1414141414141414--|
G|-9-9-9-9-9-9-9-9-8-8-8-8-8-8-8-8-1313131313131313-1414141414141414--|
D|-9-9-9-9-9-9-9-9-8-8-8-8-8-8-8-8-1313131313131313-1414141414141414--|
A|-7-7-7-7-7-7-7-7-6-6-6-6-6-6-6-6-1111111111111111-1212121212121212--|
E|--------------------------------------------------------------------|

Outro:
Guitar 1:
e|--------------------------------------------------------------7--|
B|-9-9-9-9-9-9-9-9-7-7-7-7-7-7-7-7-1212121212121212-14-12-14-12-7--|
G|-9-9-9-9-9-9-9-9-8-8-8-8-8-8-8-8-1313131313131313-14-13-14-13-8--|
D|-9-9-9-9-9-9-9-9-8-8-8-8-8-8-8-8-1313131313131313-14-13-14-13-9--|
A|-7-7-7-7-7-7-7-7-6-6-6-6-6-6-6-6-1111111111111111-12-11-12-11-9--|
E|--------------------------------------------------------------7--|

Finished!
Think this is all 100% but not sure on guitar 2 for post chorus!
Hope this helps!! :)

************************************

| /   slide up
| \   slide down
| h   hammer-on
| p   pull-off
| ~   vibrato
| +   harmonic
| x   Mute note
| b   Bend
| pb  Pre-bend
| br  Bend release
| pbr Pre-bend release
| brb Bend release bend
| tr  Tremolo pick

************************************
Tap to rate this tab
 
# A B C D E F G H I J K L M N O P Q R S T U V W X Y Z