Song name
# A B C D E F G H I J K L M N O P Q R S T U V W X Y Z

The Wombats - Techno Fan tab

-------------------------------------------------------------------------------
			    Techno fan - Wombats 
-------------------------------------------------------------------------------
Tabbed by: TheWombats76243
Tuning: Standard 
Tord plays a guitar in this and not a bass 

Murph - guitar 1 
Tord  - guitar 2 


introduction originally on keyboard 
       Guitar 1
e|--------5-------5-------5-------5-------5-------5-------5-------5--|
B|----7-------7-------7-------7-------8-------8-------8-------8------|
G|--7---7---7---7---7---7---7---7---7---7---7---7---7---7---7---7----|
D|-------------------------------------------------------------------|
A|-------------------------------------------------------------------|
E|-------------------------------------------------------------------|

^^ throughout introduction and first verse until 'Just to have a good time' 
then its this (tab below) for just the one line on the end of the verse

e|--------7-------7-------7-------7-------7-------7-------7-------7--|
B|----7-------7-------7-------7-------8-------8-------8-------8------|
G|--7---7---7---7---7---7---7---7---7---7---7---7---7---7---7---7----|
D|-------------------------------------------------------------------|
A|-------------------------------------------------------------------|
E|-------------------------------------------------------------------|

Chorus ('shut up and move with me...') 

played on keyboard quietly (listen to song to get timing) 

   D    G    Bm   A    G           D (again on 'i never knew i was a techno fan') 

e|-5----3----2----5----3---     ---5--|
B|-7----3----3----5----3---  <  ---7--|
G|-7----4----4----6----4---  X2 ---7--|
D|-7----5----4----7----5---  <  ---7--|
A|-5----5----2----7----5---     ---5--|
E|-5----3----2----5----3---     ---5--|

woooo ooo wooo oo woo wo oooooo ! 
  strum these repeatedly to fit in time with the song  
   
     Guitar 1     
e|--------------------------|
B|--15----------15----------|
G|--11-(x16)----12--(x16)---|
D|--12----------12----------|
A|--------------------------|
E|--------------------------|

     Guitar 2 
     D (x16)    G (x16)
e|---5----------3-----------|
B|---7----------3-----------|
G|---7----------4-----------|
D|---7----------5-----------|
A|---5----------5-----------|
E|---5----------3-----------|

through 2nd verse nothing but drum and bass until 'she said i should come over' 

e|--------5-------5-------5-------5-------5-------5-------5-------5--|
B|----7-------7-------7-------7-------8-------8-------8-------8------|
G|--7---7---7---7---7---7---7---7---7---7---7---7---7---7---7---7----|
D|-------------------------------------------------------------------|
A|-------------------------------------------------------------------|
E|-------------------------------------------------------------------|

Chorus (again strum repeatedly to fit in time) 
     
     Guitar 1 

 /    x16 each    \ /    x8 each    \ /     x16 each   \
e|-----------------|--10-------------|------------------|
B|--15-------15----|--12------14-----|--15--------------|
G|--11-------12----|--11------14-----|--12--------------|
D|--12-------12----|---9------14-----|--12--------------|
A|-----------------|----------12-----|------------------|
E|-----------------|-----------------|------------------|
     Guitar 2 
   
  /    x16 each   \ /    x8 each    \ /   (about x16)  \
e|--5--------3-----|--2-------5------|--3---------------|
B|--7--------3-----|--3-------5------|--3---------------|
G|--7--------4-----|--4-------6------|--4---------------|
D|--7--------5-----|--4-------7------|--5---------------|
A|--5--------5-----|--2-------7------|--5---------------|
E|--5--------3-----|--x-------5------|--3---------------|

Solo 
e|--------5-------5-----5--------------0---------0------0------------|
B|----6-------6-----6-----6------12--------12------12-----12---------|
G|--7---7-------7-----7-----7/12----12--------12-----12-----12-------|
D|-------------------------------------------------------------------|
A|-------------------------------------------------------------------|
E|-------------------------------------------------------------------|


e|-------14------14------14------14------14------14-------14------14-|
B|---15------15------15------15------15------15------15-------15-----|
G|-16--16--16--16--14--14--14--14--12--12--12--12--12---12--12--12---|
D|-------------------------------------------------------------------|
A|-------------------------------------------------------------------|
E|-------------------------------------------------------------------|
(im not sure about this solo at all but it is the closest i could figure, so 
please correct me if you know) 
... im in debt to you, so don't feed me plant food.... 

     Bm        Dm  
e|---2/--------5-------------|
B|---3/--------6-------------|
G|---4/--------7-------------|
D|---4/--------7-------------|
A|---2/--------5-------------|
E|---x---------x-------------|


Back to chorus 
     
     Guitar 1 

 /    x16 each    \ /    x8 each    \ /    x16 each    \
e|-----------------|--10-------------|------------------|
B|--15-------15----|--12------14-----|--15--------------|
G|--11-------12----|--11------14-----|--12--------------|
D|--12-------12----|---9------14-----|--12--------------|
A|-----------------|----------12-----|------------------|
E|-----------------|-----------------|------------------|
     Guitar 2 
   
  /    x16 each   \ /    x8 each    \ /    x16 each    \
e|--5--------3-----|--2-------5------|--3---------------|
B|--7--------3-----|--3-------5------|--3---------------|
G|--7--------4-----|--4-------6------|--4---------------|
D|--7--------5-----|--4-------7------|--5---------------|
A|--5--------5-----|--2-------7------|--5---------------|
E|--5--------3-----|--x-------5------|--3---------------|

i hope this has helped, even if it is not entirely correct it is at least a start 

| /   slide up
| \   slide down
| h   hammer-on
| p   pull-off
| ~   vibrato
| +   harmonic
| x   Mute note
| b   Bend
| pb  Pre-bend
| br  Bend release
| pbr Pre-bend release
| brb Bend release bend

Tap to rate this tab
 
# A B C D E F G H I J K L M N O P Q R S T U V W X Y Z