The Wombats - Tokyo Vampires And Wolves tab

Intro :

E -------------------------------------|
B -------------------------------------|
G ---99-5---7-77-7777-7-77-------------|  x 1
D ---99-5---7-77-7777-7-77--3-33-------|
A ---77-3---5-55-5555-5-55--3-33-------|
E --------------------------1-11-------|

E -------------------------------------|
B -------------------------------------|
G ---99-5---7-77-7777-7-77-------------|  x 1
D ---99-5---7-77-7777-7-77--3-33-------|
A ---77-3---5-55-5555-5-55--3-33-------|
E --------------------------1-11-------|

1st Part :

E --------------------------------------------------------------------------|
B --------------------------------------------------------------------------|
G --------------------------------------------------------------------------|
D --------------------------------------------------------------------------|
A -----------5-55-5-3-5-7-5-5-77-8-88-8-7-8-10-------------5-55-5-3-5-7-5-5-|
E -5-5-5-3-5-------------------------------------5-5-5-3-5------------------|

E ---------------|
B ---------------|
G ---------------| x 2
D ---------------|
A -33------------|
E ----5-55-------|

Chorus :

E --------------------------------------------------------------|
B --------------------------------------------------------------|
G ---7-7-777-------------------------------------5-55-5-5-55-55-|
D ---7-7-777-7-7-77-3-3-3-3-3-33-33-5-5-57-77-77-5-55-5-5-55-55-|
A ---5-5-555-7-7-77-3-3-3-3-3-33-33-5-5-57-77-77-3-33-3-3-33-33-|
E -----------5-5-55-1-1-1-1-1-11-11-3-3-35-55-55----------------|

E -------------------------------------------------------------------|
B -------------------------------------------------------------------|
G ---7-7-777-5-5-55------------------------------5-55-5-5-55-55--7---|
D ---7-7-777-5-5-55-3-3-3-3-3-33-33-5-5-57-77-77-5-55-5-5-55-55--7---|
A ---5-5-555-3-3-33-3-3-3-3-3-33-33-5-5-57-77-77-3-33-3-3-33-33--5---|
E ------------------1-1-1-1-1-11-11-3-3-35-55-55---------------------|

and u repat the intro :

E -------------------------------------------|
B -------------------------------------------|
G -7-7-777-99-5---7-77-7777-7-77-------------|  x 1
D -7-7-777-99-5---7-77-7777-7-77--3-33-------|
A -5-5-555-77-3---5-55-5555-5-55--3-33-------|
E --------------------------1-11-------------|

E -------------------------------------|
B -------------------------------------|
G ---99-5---7-77-7777-7-77-------------|  x 1
D ---99-5---7-77-7777-7-77--3-33-------|
A ---77-3---5-55-5555-5-55--3-33-------|
E --------------------------1-11-------|

and u repeat the first part and chorus ;)
Tap to rate this tab
 
# A B C D E F G H I J K L M N O P Q R S T U V W X Y Z