The Wombats - Our Perfect Disease tab

-------------------------------------------------------------------------------  
			                      Our Perfect Disease - The Wombats
-------------------------------------------------------------------------------
Tabbed by:Brian Lee

Probably the best song after 'Jump Into the Fog' and 'Tokyo (Vampires & Wolves' 
off This Modern Glitch album.

Tuning:Standard



Intro and Verse: No guitar 

We don't admit it but we've never seen eye to eye, my heartbeat's moaning and 
yours is making money
It's always a shock when old friends pass by, but with you it's no death in the family
Let's not talk about hate when there's hell to pay for my cowardness and your bad timing
We don't admit it but we've never seen eye to eye, and it's not through a lack of trying


Chorus

It was the perfect disease we had, something to argue and scream about
And you will see about contracting back, and locking it somewhere it can't get ripped out

e|-10~-----5~------9~----|
B|-10~-----5~------9~----|
G|-11~-----6~-----10~----|
D|-12~-----7~-----11~----|   x2
A|-----------------------|
E|-----------------------|

It was the perfect disease we had, and it hits us like a painful fact

e|--10------------------------------5~---9~------10~--------|
B|--10------------------------------5~---9~------10~--------|
G|--11--------14--13--11--9---------6~---10~-----11~--------|
D|--12---------x---x---x--x---------7~---11~-----12~--------|
A|--12--------12--11---9--7---------7~---11~-----12~--------|
E|--10------------------------------5~---10~-----10~--------|

We all need someone to drive us......

MAD!

e|--------------------------------------------------|
B|--------------------------------------------------|
G|--------------------------------------------------|
D|----4--------4-----------7-----------11-----------|  x2
A|--------------------------------------------------|
E|--2---2-2--2---2-2---2/5---5-5---5/9----9-10\2----|


Verse - No guitar.

I didn't say it but you never were the honest type, you tried to fabricate a bed-time story
And now I miss those games we had of Jekyll and Hyde, ever since the day that we parted company
Don't send a helping hand I need a farrowing ram, to feed the reasons that I miss you so sorely
I didn't say it but we never saw eye to eye, now I can't bear it when equally is boring

Chorus - It was the perfect disease we had, something to argue and scream about
And you will see about contracting back, and locking it somewhere it can't get ripped out
It was the perfect disease we had, and it hits us like a painful fact


e|--10--------5--------9--------|
B|--10--------5--------9--------|
G|--11--------6~-------10-------| 
D|--12(x16)---7(x8)----11(x8)---|     x3
A|--12--------7--------11-------|
E|--10--------5--------10-------|


e|--10-------|
B|--10-------|
G|--11-------|
D|--12(x16)--|
A|--12-------|
E|--10-------|

We all need someone to drive us mad
(Down)(Up)(Down) (Down)(Up)
e|--10-10-10-------10-9~---|
B|--10-10-10-------10-9~---|
G|--11-11-11-------11-10~--|
D|--12 12-12-------12-11~--|
A|--12-12-12-------12-11~--|
E|--10-10-10-------10-9~---|


e|-------------------------------------------------|
B|-------------------------------------------------|
G|-------------------------------------------------|
D|----4--------4-----------7-----------11----------|   x2
A|-------------------------------------------------|
E|--2---2-2--2---2-2---2/5---5-5---5/9----9-10\2---|


Bridge - I need you in the TV, I need you on the train, I need you every single which way
I need you in the mirrors, I need you in my bed, I need you to wreck my head
I need you in the TV, I need you on the train, I need you just to stand in my way

e|------------------------------------------------------|
B|------------------------------------------------------|
G|------------------------------------------------------|
D|----4--------4-----------7----------------------------|
A|------------------------------------------------------|
E|--2---2-2--2---2-2---2/5---5-5----3(Tremolo Picking)--l

I need you in the mirrors, 

e|---------------------|
B|---------------------|
G|---------------------|
D|----4--------4-------|
A|---------------------|
E|--2---2-2--2---2-2---l

I need you in my bed (Can't figure this bit out :l )


Chorus - It was the perfect disease we had, something to argue and scream about
But you will see about contracting back, and locking it somewhere it can't ripped out

e|--10--------5--------9--------|
B|--10--------5--------9--------|
G|--11--------6~-------10-------| 
D|--12--------7--------11-------|     x2
A|--12--------7--------11-------|
E|--10--------5--------10-------|

It was the perfect disease we had, and it hits us like a painful fact


e|--10--------5--------9------10-------|
B|--10--------5--------9------10-------|
G|--11--------6~-------10-----11-------| 
D|--12(x16)---7(x8)----11(x8)-12(x16)--|    
A|--12--------7--------11-----12-------|
E|--10--------5--------10-----10-------|

We all need someone to drive us mad
(Down)(Up)(Down) (Down)(Up)
e|--10-10-10-------10-9~-------|
B|--10-10-10-------10-9~-------|
G|--11-11-11-------11-10~------|
D|--12 12-12-------12-11~------|
A|--12-12-12-------12-11~------|
E|--10-10-10-------10-9~----2--|



************************************

| /   slide up
| \   slide down
| h   hammer-on
| p   pull-off
| ~   vibrato
| +   harmonic
| x   Mute note
| b   Bend
| pb  Pre-bend
| br  Bend release
| pbr Pre-bend release
| brb Bend release bend

************************************
Tap to rate this tab
 
# A B C D E F G H I J K L M N O P Q R S T U V W X Y Z