Song name
# A B C D E F G H I J K L M N O P Q R S T U V W X Y Z

The Wombats - Jump Into The Fog tab

The Wombats - Jump Into The Fog

Intro
e|-12--10--6---------9--7--4--------------|
B|-x---x---x---------x--x--x--------------|
G|-9---8---3---------6--4--1--------------|
D|----------------------------------------| 4x
A|----------------------------------------|
E|----------------------------------------|

Verse
e|-------------------------------------------------------------------------|
B|-------------------------------------------------------------------------|
G|-------------------------------------------------------------------------|
D|------------------------/11-9------------------------------------9-------|
A|-------------7-7--7-7--7------11----------------7-7--7-7--7-9-11---------|
E|-7-7--9-9--9-----------------------7-7--9-9--9---------------------------|

e|-------------------------------------------------------------------------|
B|-------------------------------------------------------------------------|
G|-------------------------------------------------------------------------|
D|------------------------/11-9--------------------------------------------|
A|-------------7-7--7-7--7------11----------------7-7-7-7-9-9-11-11--------|
E|-7-7--9-9--9-----------------------7-7--9-9--9---------------------------|

e|-12--10--6---------9--7--4----------12--10--6----------9--7--4---x-x-x-x-|
B|-x---x---x---------x--x--x----------x---x---x----------x--x--x---x-x-x-x-|
G|-9---8---3---------6--4--1----------9---8---3----------6--4--1---x-x-x-x-|
D|-----------------------------------------------------------------x-x-x-x-|
A|-----------------------------------------------------------------x-x-x-x-|
E|-----------------------------------------------------------------x-x-x-x-|

Chorus
|B                      |C#m                    |A                      |C#m            E       |
|B                      |C#m                    |A                      |C#m            E       |
|B                      |C#m                    |A                      |C#m            E       |
|B                      |C#m                    |A                      |C#m            E       |

Verse
e|-------------------------------------------------------------------------|
B|-------------------------------------------------------------------------|
G|-------------------------------------------------------------------------|
D|------------------------/11-9--------------------------------------------|
A|-------------7-7--7-7--7------11--------------7-7--7---------------------|
E|-7-7--9-9--9-----------------------7-7-9-9--9---------12-12-12-12--------|

e|-------------------------------------------------------------------------|
B|-------------------------------------------------------------------------|
G|-------------------------------------------------------------------------|
D|------------------------/11-9--------------------------------------------|
A|-------------7-7--7-7--7------11----------------7-7-7-7-9-9-11-11--------|
E|-7-7--9-9--9-----------------------7-7--9-9--9---------------------------|


Chorus
|B                      |C#m                    |A                      |C#m            E       |
|B                      |C#m                    |A                      |C#m            E       |
|B                      |C#m                    |A                      |C#m            E       |
|B                      |C#m                    |A                      |C#m            E       |

Bridge
|F#m                    |A                      |E                      |G#m                    |
|F#m                    |A                      |E                      |G#m            Gm      |
|F#m                    |A                      |E                      |G#m    |
|F#m                    |A                      |E              |

Outro
e|---------------------------------|
B|---------------------------------|
G|---------------------------------|
D|-11-13--10-10----9--11-8--8------|
A|-x--x---x--x-----x--x--x--x------|
E|-9--11--8--8-----7--9--6--6------|
Tap to rate this tab
 
# A B C D E F G H I J K L M N O P Q R S T U V W X Y Z