Song name
# A B C D E F G H I J K L M N O P Q R S T U V W X Y Z

The Wombats - 1996 tab

Tuning: Standard

e|-------11-----7-----------11-----7---------7--9----11--9----7--------------|
B|----7------7-----------7------7---------9----------------------9-----------|
G|---------------------------------------------------------------------------|
D|---------------------------------------------------------------------------|
A|---------------------------------------------------------------------------|
E|---------------------------------------------------------------------------|

e|-------11-----7--------9----11--9----7--------------|
B|----7------7----------------------------9-----------|
G|----------------------------------------------------|
D|----------------------------------------------------|
A|----------------------------------------------------|
E|----------------------------------------------------|
Tap to rate this tab
# A B C D E F G H I J K L M N O P Q R S T U V W X Y Z