Song name
# A B C D E F G H I J K L M N O P Q R S T U V W X Y Z

The Wombats - School Uniforms tab

Intro:

----------------------------------------|
----------------------11-11-------9-----|
-10-10-10-10-10-10-10-11-11-10-10---10--|
-11-11-11-11-11-11-11-11-11-------------|
-11-11-11-11-11-11-11-9--9--------------|
-9--9--9--9--9--9--9--------------------|


----------------------------------------|
----------------------11-11-------------|
-10-10-10-10-10-10-10-11-11-10-10-8-6---|
-11-11-11-11-11-11-11-11-11-------------|
-11-11-11-11-11-11-11-9--9--------------|
-9--9--9--9--9--9--9--------------------|


Verse:

(Bass)

------------------------------------------------------|
----------------------------------------------6-6-6-6-|
-4-4-4-4-4-4-4----------6-6-6-6-6-6-6-----------------|
---------------2-2-2-2----------------4-4-4-4---------|

then intro again

repeat, but last chord of intro stay on C#


Chorus:

F# Fm D#m


'Short Skirts Long Hair...'

C# C# C# C# C# C# F#

C# C# C# C# C# C# C#

A#m A#m A#m A#m Fm Fm F# F#

C# C# C# C# C# C# C#

C# C# C# C# C# C# C#

A#m A#m A#m A#m Fm Fm F# F#

C# C# C# C# C# C# C#

F# F# F# F# Fm Fm Fm Fm

D#m D#m D#m D#m D#m D#m D#m D#m

F# F# F# F# Fm Fm Fm Fm

D#m D#m D#m D#m D#m D#m D#m D#m


Chorus:

F# Fm D#m


end with intro


www.myspace.com/thewombatsuk
www.thewombats.co.uk

please rate and comment

suggestions:
georgewelling@hotmail.com
Tap to rate this tab
 
# A B C D E F G H I J K L M N O P Q R S T U V W X Y Z