Song name
# A B C D E F G H I J K L M N O P Q R S T U V W X Y Z

The Wombats - Party In A Forest tab

Help us improve GuitareTab! Take a short survey!
Intro:

------------------------------------------------------------|
------------------------------------------------------------|
------------------------------*3----------------------------|
------------------------------------------------------------|
-99999-66666-11-9----11-9-----------------------------------|
------------------11------11------99999999999-9^9^9^9^------|

1st half of verse, no guitar

2nd half:

-------------------------*2------------------------------7-7-7-7-7-7-7-7-7-7--|
-7-7-7-9\---9-9-9-11\---------7-7-7-9\---9-9-9-11-11-11--7-7-7-7-7-7-7-7-7-7--|
-8-8-8-8\---9-9-9-9-\---------8-8-8-8\---9-9-9-9--9--9---9-9-9-9-9-9-9-9-9-9--|
---------------------------------------------------------9-9-9-9-9-9-9-9-9-9--|
---------------------------------------------------------9-9-9-9-9-9-9-9-9-9--|
---------------------------------------------------------7-7-7-7-7-7-7-7-7-7--|

Chorus:

B E B E B E


Keyboard part:


--------------------------------------------|
---4---4---4---7--*2------------------------|
-4---4---4---4------------------------------|
--------------------------------------------|
--------------------------------------------|
--------------------------------------------|


1st half verse no guitar until:

--------------------------------------------|
-----------------9-9-9-11-11-11-------------|
--9-9-9-11-11-11-9-9-9-9--9--9--------------|
--9-9-9-9--9--9--9-9-9-9--9--9--------------|
--------------------------------------------|
--------------------------------------------|

then variation of before:


--------------------------------*3-------------------------------------|
-7-7-7-9-9-9---9-9-9-11-11-11-------12-12-12-12-12-12-12-12-12-12-12---|
-8-8-8-8-8-8---9-9-9-9--9--9--------9--9--9--9--9--9--9--9--9--9--9----|
-9-9-9-9-9-9---9-9-9-9--9--9--------9--9--9--9--9--9--9--9--9--9--9----|
-----------------------------------------------------------------------|
-----------------------------------------------------------------------|

'Solo':

--------------------------------------------------------|
--9--8---7--------*2---9--8--7-7-7-7-7-7-7-7-7-7-7-7----|
--9--9-----8-6-8-------9--9--8-8-8-8-8-8-8-8-8-8-8-8----|
-----------------------------9-9-9-9-9-9-9-9-9-9-9-9----|
--------------------------------------------------------|
--------------------------------------------------------|


----------------------------------------------------------|
----------------------------------------------------------|
---------------------------------------------*3-----------|
----------------------------------------------------------|
9999999666666611-11-11-11-11-10100101001010----9999999999-|
----------------------------------------------------------|

Chorus:

B E B E B E


End: B
Related for Party In A Forest tab