Song name
# A B C D E F G H I J K L M N O P Q R S T U V W X Y Z

The Wombats - Is This Christmas tab

Is This Christmas?


Intro: (all keyboard parts converted to guitar)

------------------------------------------------------------|
-8-7-----7---------8-7-----7--------------------------------|
-------7---9-------------7---9------------------------------|
-----9-------10-9------9-------10-9-10----------------------|
------------------------------------------------------------|
------------------------------------------------------------|

Verse:

-10---7----5---3--------------------------------------------|
-12---8----7---5--------------------------------------------|
-12---9----7---5--------------------------------------------|
------------------------------------------------------------|
------------------------------------------------------------|
------------------------------------------------------------|


-15--14------10----14--12-----------*2-----------------------------------------|
-12--12--12--12----15--15--13--12----------------------------------------------|
-12--12--12--12----14--14--14--14----------------------------------------------|
--------------------------------------------------14-14--------------14-14-12--|
-----------------------------------------12-12-12-------15--12-12-12-----------|
-------------------------------------------------------------------------------|


Bridge:

Am C Am D G

Chorus:

G Em D C
www.myspace.com/thewombatsuk
www.thewombats.co.uk

please rate and comment.

suggestions:
georgewelling@hotmail.com
Tap to rate this tab
# A B C D E F G H I J K L M N O P Q R S T U V W X Y Z