Song name
# A B C D E F G H I J K L M N O P Q R S T U V W X Y Z

The Wombats - Lost In The Post tab

Lost In The Post

Intro:

B C#m E   E
B C#m D#m E

------------------------------------------|
---------------------4--*3-----7--5-4-----|
-4-4-----4-4-----4-6---------4--------4---|
-----6-4-----6-4--------------------------|
------------------------------------------|
------------------------------------------|

Verse:

() = not played but implied by bass/melody

(B C#m G#m
B C#m D#m E)
B C#m G#m
C#m D#m E


Chorus:

B E
C#m D#m E


Break (not 100% but yknow Murph)

----------------------------------------------------|
------------12--12----12--12----12--12----12--12----|
------------13--13----13--13----13--13----13--13----|
------------13--13----13--13----13--13----13--13----|
----------------------------------------------------|
-7----9---------------------------------------------|

----------------------------------------------------|
------------12--12----12--12----12--12----12--12----|
------------13--13----13--13----13--13----13--13----|
------------13--13----13--13----13--13----13--13----|
----------------------------------------------------|
-7----5---------------------------------------------|


Verse:

() = not played but implied by bass/melody

(B C#m G#m
B C#m D#m E-D#m C#m)
B C#m G#m
C#m D#m E


Chorus:

B E
C#m D#m E

Outro:

B E
C#m D#m E


End on E-D#m C#m B
Tap to rate this tab
 
# A B C D E F G H I J K L M N O P Q R S T U V W X Y Z