Song name
# A B C D E F G H I J K L M N O P Q R S T U V W X Y Z

The Wombats - Metro Song tab

Intro:

--------------------------|
--------------------------|
--------------------------|
--7-7-7-7-7-7-7-7-7-7-----|
--0-0-0-0-0-0-0-0-0-0-----|
--------------------------|


Verse: (high frets)

E F#m D

(Intro Again)


Chorus:
F#m F#m7 A A
F#m F#m  A A
F#m F#m7 D D


Break:
A A# A.. G# G#
A A# A..


Verse:

E F#m D


'I think my car got...'

E
F#m (x24400)
D


(Intro Again)


Chorus:
F#m F#m7 A A
F#m F#m  A A
F#m F#m7 D D


Break:
A A# A.. G# G# *3
A A# A..


'He's just my little blue bomb...'
AAAAAAAAAAAAAAAAAAAAAAAAAAAAAAAAAA


'Solo'

---------------------------------------------------|
--------------2--2--2--2--2--2---------------------|
-2-2-2-2-2-2--4^-4^-4^-4^-4^-4v--6-6-6-6-6-6-6-6---|
-4-4-4-4-4-4---------------------7-7-7-7-7-7-7-7---|
-4-4-4-4-4-4---------------------7-7-7-7-7-7-7-7---|
-2-2-2-2-2-2---------------------5-5-5-5-5-5-5-5---|


Chorus:
F#m F#m7 A A
F#m F#m  A A
F#m F#m7 D D


Outro:
A A# A.. G# G# *4
Tap to rate this tab
 
# A B C D E F G H I J K L M N O P Q R S T U V W X Y Z