Song name
# A B C D E F G H I J K L M N O P Q R S T U V W X Y Z

The Wombats - Derail And Crash tab

Help us improve GuitareTab! Take a short survey!
Intro:

------------------------------------------------| *2
------------------------------------------------|
-8-8-----8-8------9-9-----9-8\----1-1-1---------|
-----9-9-----9-9------9-9---------------2-------|
------------------------------------------2-2-2-|
------------------------------------------------|


Verse:

B A G#m
B A G#m
B A G#m
B A G#m
E E E E


Chorus:

B A G#m
B A G#m E
B A G#m
E E E E


------------------------------------------------| *1
------------------------------------------------|
-8-8-----8-8------9-9-----9-8\----1-1-1---------|
-----9-9-----9-9------9-9---------------2-------|
------------------------------------------2-2-2-|
------------------------------------------------|


Verse:

B A G#m
B A G#m
B A G#m
B A G#m
E E E E


Chorus:

B A G#m
B A G#m E
B A G#m
E E E E


Break:

-----------------------------------|
-----------------------------------|
-----------------------------------|
-9-9-9-9-9-9-9-9-9-9-9-9-9-9-9-9---|
-9-9-9-9-9-9-9-9-9-7-7-7-7-7-7-7---|
-----------------------------------|


Solo:

--------------------------------------------------------|
-x-x-x-x-x-x--------------------------------------------| *2
-8-8-8-8-9-8-6-6-6-6-7-6---4-4-4-4-4-7-6-4-4-4-4-7-6----|
-9-9-9-9-9-9-7-7-7-7-7-7---6-6-6-6-6-x-x-6-6-6-6-x-x----|
---------------------------6-6-6-6-6-6-6-6-6-6-6-6-6----|
--------------------------------------------------------|

Chorus:

B A G#m
B A G#m E
B A G#m
E E E E

End On B


(this is also also overdubbed over most of the chorus:)

-----------------------------------|
--------------------*howevermany---|
-8---8---8---8^9V8-----------------|
---9---9---9-----------------------|
-----------------------------------|
-----------------------------------|
Related for Derail And Crash tab