Song name
# A B C D E F G H I J K L M N O P Q R S T U V W X Y Z

The Wombles - Wombles Theme Tune tab

wombles website: http://www.toonhound.com/wombles.htm
Artist: The Wombles
Song: The Wombles Theme
Tabber: Aidan

e---------------------------------------------|
B---------------------------------------------|
G----------------------------1----------------|
D-------2--2--------------2-------------------|
A-2--4--------4--2--2--4----------------------|
E---------------------------------------------|

e---------------------------------------------|
B---------------------------------------------|
G-1-2--1-----1--------------------------------|
D---------4-----4-2--2--4-----2--1------------|
A--------------------------4------------------|
E---------------------------------------------|

Fairly straight forward, but, I'd noticed that there was no tab for 
those desperate wombling fans: Here you go! Artist: The Wombles
Tap to rate this tab
# A B C D E F G H I J K L M N O P Q R S T U V W X Y Z