Song name
# A B C D E F G H I J K L M N O P Q R S T U V W X Y Z

The Wombles - Hall Of The Mountain Womble tab

e-------------------------------------------------------
b-------------------------------------------------------
g-------------------------------------------------------
D-------------------------------------------------------
A--------------------------------------9p7h9-7p5h7-5p3h5
E-7-9-7-9-7-9-7-9-7-9-7-9-7-9-7-9-9-9-9-----------------

e-------------------------------------------------------|
b-------------------------------------------------------|
g-------------------------------------------------------|
D------------------7---7---7----------------------------|
A----------9p7h9-5---5---5------------------------------|
E-9-9-9-9-----------------------------------------------|

enjoy the tab, thas pretty much the intro  but it can b played as the whole song ,as the 
pretty much goes like tha ( if n e of tha made sense  well doen me)
Tap to rate this tab
# A B C D E F G H I J K L M N O P Q R S T U V W X Y Z