Guitaretab - guitar tabs
Song name
# A B C D E F G H I J K L M N O P Q R S T U V W X Y Z

The Wonder Years - Racing Trains tab

heres for you matthew...

racing trains
by the wonder years

tune drop d

you play this in order for the first part, strum how you like, these are just the chords:

e|-----0----------0----------0----------0-----|
B|-----0----------3----------0----------3-----|
G|-----2----------2----------6----------2-----|
D|-----2----------0----------7----------0-----|
A|-----0----------0----------4----------0-----|
D|-----X----------0----------4----------0-----|
[ Tab from: http://www.guitaretab.com/t/the-wonder-years/185465.html ]
then it switches to this when he says "worn these rails thin and...":


e|-----0----------0----------0-----|
B|-----0----------0----------3-----|
G|-----2----------4----------2-----|
D|-----4----------6----------0-----|
A|-----2----------4----------0-----|
D|-----X----------X----------0-----|

then back to the first chord progression.

then thats all you pretty much need to know.
these are only the chords, just figure out how many times to play them and the strum 
and stuff.
theres still more i think though.
if any help please let me know.
Related for Racing Trains tab
Advertisement will be closed in 10 seconds