Song name
# A B C D E F G H I J K L M N O P Q R S T U V W X Y Z

The Wonder Years - Mike Kennedy Is A Bad Friend tab

Mike Kennedy is a Bad Friend
Tabbed by Robby Unruh



Rhythm Guitar

E|------------------------------------------------------------|
B|------------------------------------------------------------|
G|------------------------------------------------------------|
D|--0h5-5-5-0h5-9-7-0~--2-0~------0h5-5-5-0h5-9-7-0~--2-4~----|
A|--0h5-5-5-0h5-9-7-0~--2-0~------0h5-5-5-0h5-9-7-0~--2-4~----| [x2]
D|--0h5-5-5-0h5-9-7-0~--2-0~------0h5-5-5-0h5-9-7-0~--2-4~----|

After playing the above twice, add the lead guitar in.


Lead Guitar

E|-------------------------------------|
B|-------------------------------------|
G|-------------------------------------|
D|--0-0h2-0-0-0h2h4-4-4-2-0-0-0-0-9-7--|
A|-------------------------------------|
D|-------------------------------------|

Rhythm Guitar End

E|--------------------------------------|
B|--------------------------------------|
G|--------------------------------------|
D|--9~~-7~~-0~~~------------------------|
A|--9~~-7~~-0~~~------------------------|
D|--9~~-7~~-0~~~------------------------|


Lead Guitar End

E|--------------------------------------|
B|--------------------------------------|
G|--------------------------------------|
D|--9~~-7~~-0~~~------------------------|
A|--------------------------------------|
D|--------------------------------------|
Tap to rate this tab
# A B C D E F G H I J K L M N O P Q R S T U V W X Y Z