Song name
# A B C D E F G H I J K L M N O P Q R S T U V W X Y Z

The Wonder Years - Solo And Chewy Holdin It Down tab

This song is tabbed for the rhythm guitar. there are some lead guitar parts but i
haven't figured them out yet. But the rhythm guitar parts are funn

intro/verse                                      let ring
e------------------------------------------------{-------|
b------------------------------------------------{-------|
g----7-7-7-7-----7-7-7-7-7-----7-7-7-7-----------{-------|
d--0-7-7-7-7-7-0-7-7-7-7-7-7-0-7-7-7-7-7-9-9-5-5---------|9~7~5~]
a--0-5-5-5-5-7-0-5-5-5-5-5-7-0-5-5-5-5-7-9-9-5-5---------|9~7~5~]
e--0---------7-0-----------7-0---------7-9-9-5-5---------|9~7~5~}

pre-chorus
                     let ring.....second time
e--------------------[---]   [----]
b--------------------[---]   [----]
g--------------------[---]   [----]
d-2-0-2--9999-5555---[-7~]   [-55~]
a-2-0-2--9999-5555---[-7~]   [-55~]
e-2-0-2--9999-5555---[-7~]   [-55~]

Chorus

e-------------------------|
b-------------------------|
g-------------------------|
d-00-7-55-5-22-7-5555-777-|play x2 for second chorus then don't palm mute
a-00-7-55-5-22-7-5555-777-|
e-00-7-55-5-22-7-5555-777-|
                 .... ...

verse 2


e---------------------------------------------|
b---------------------------------------------|
g---7-7-7-7----7-7-7-7-7----7-7-7-7-----------|x2 then play normal
d---7-7-7-7-7--7-7-7-7-7-7--7-7-7-7-7-9-9-5-5-|
a---5-5-5-5-7--5-5-5-5-5-7--5-5-5-5-7-9-9-5-5-|
e-----------7------------7----------7-9-9-5-5-|

repeat bridge
repeat chorus

e-----------------------------------|
b-----------------------------------|
g-----------------------------------|
d-0-0-0-0-5-5-5-5-9-9-9-9-7-7-7-7---|x6
a-0-0-0-0-5-5-5-5-9-9-9-9-7-7-7-7---|
e-0-0-0-0-5-5-5-5-9-9-9-9-7-7-7-7---|

after this play verse again and finish. and there you go! a great song by a really under 
pop punk band. hope you enjoy
Tap to rate this tab
# A B C D E F G H I J K L M N O P Q R S T U V W X Y Z