Song name
# A B C D E F G H I J K L M N O P Q R S T U V W X Y Z

The Wonder Years - Hey Thanks tab

----------------------------------------------|
                 HEY THANKS-THE WONDER YEARS--|
Tabbed by:acstaw
Email:acstawiarski@verizon.net


This is the trombone solo in Hey Thanks transcribed to guitar. I've gotten a number of 
for this part so here it is. I'm pretty sure this is 100% correct. The rhythm is simple 
just listen to the song and you can figure that out. I do not claim any rights to the song. Enjoy.

Tuning:E Standard

e|---------------------------------------------------------------------------|
B|---------------------------------------------------------------------------|
G|------------------------------------------------11-------------------------|
D|------11-9----11-9-11-9--13-11-8----13-13-11-13----9---------9-11------9-11|
A|--------------------------------------------------------9-11------9-11-----|
E|---------------------------------------------------------------------------|

e|---------------------------------------------------------------------------|
B|---------------------------------------------------------------------------|
G|----7/8-7/8---8/9--------------8-11--13-13-11-9--8-9-8---------------------|
D|------------------11------9-11-------------------------8-------------------|
A|---------------------------------------------------------------------------|
E|---------------------------------------------------------------------------|

e|---------------------------------------------------------------------------|
B|--------------------12-----------------------------------------------------|
G|----13-13-11--13-11----13-11--------------------------------11----11-------|
D|-----------------------------13-13-11--13-13-11--13-11-13------13----------|
A|---------------------------------------------------------------------------|
E|---------------------------------------------------------------------------|

e|---------------------------------------------------------------------------|
B|---------------------------------------------------------------------------|
G|---------------------------------------------------------------------------|
D|----13-11-9--11-9-6--------------------------------------------------------|
A|---------------------------------------------------------------------------|
E|---------------------------------------------------------------------------|


************************************

| /   slide up
| \   slide down
| h   hammer-on
| p   pull-off
| ~   vibrato
| +   harmonic
| x   Mute note
| b   Bend
| pb  Pre-bend
| br  Bend release
| pbr Pre-bend release
| brb Bend release bend

************************************
Tap to rate this tab
# A B C D E F G H I J K L M N O P Q R S T U V W X Y Z