The Wonder Years - Washington Square Park tab

E|-----------------------------------------------------------|
B|-----------------------------------------------------------|
G|-----------------------------------------------------------|
D|-----------------------------------------------------------|  X3
A|------7--9--------4--5--------12-------7--9------9--7--5---|
E|-0-----------0-----------0---------0-----------------------|

E|--------------------------|
B|--------------------------|
G|-9------11-11-----14-14---|
D|-X------X--X------X--X----| X1
A|-7------9--9------12-12---|
E|--------------------------|

E|----------------------------------------------------------------|
B|----------------------------------------------------------------|
G|------9--11---------6--7---------14------9--11---------11-9--7--|
D|------X--X----------X--X---------X-------X--X----------X--X--X--|  X3
A|------7--9----------4--5---------12------7--9----------9--7--5--|
E|-0-------------0-------------0-------0--------------------------|


E|--------------------------|
B|--------------------------|
G|-9------11-11-----14-14---|
D|-X------X--X------X--X----| X1
A|-7------9--9------12-12---|
E|--------------------------|
Tap to rate this tab
 
# A B C D E F G H I J K L M N O P Q R S T U V W X Y Z