The Wonder Years - Everything I Own Fits In This Backpack tab

--------------------------------------------------------------------
       Everything I Own Fits In This Backpack - The Wonder Years
--------------------------------------------------------------------

Tabbed by:Nylertickel2
Email:The_missing_frame@live.ca

This is the rhythm as I can't hear the lead too well 

This is also my first tab so please tell me if anything is wrong

Tuning: Drop C#

Intro I/Verse/Outro x2

e|---------------------------------------------------------------------------|
B|---------------------------------------------------------------------------|
G|---7777777777777777--------------------------------------------------------|
D|---7777777777777777--5555555555555555--2222222222222222--4444444444444444--|
A|---5555555555555555--5555555555555555--2222222222222222--4444444444444444--|
E|---------------------5555555555555555--2222222222222222--4444444444444444--|

e|---------------------------------------------------------------------------|
B|---------------------------------------------------------------------------|
G|---------------------------------------------------------------------------|
D|---5555555555555555--------------------------------------------------------|
A|---5555555555555555--------------------------------------------------------|
E|---5555555555555555--------------------------------------------------------|

Intro II/Chorus x2

e|---------------------------------------------------------------------------|
B|---------------------------------------------------------------------------|
G|---7--77-------------------------------------------------------------------|
D|---7--77--7--5--55--999--7--7--0--000--55-5--2222--4444--------------------|
A|---5--55--7--5--55--999--7--7--0--000--55-5--2222--4444--------------------|
E|----------7--5--55--999--7--7--0--000--55-5--2222--4444--------------------|

Verse is Intro I x2 but palmmuted

Pre-Chorus

e|---------------------------------------------------------------------------|
B|---------------------------------------------------------------------------|
G|---------------------------------7-----------------------------------------|
D|---0000------0000------0000------7----------000----------------------------|
A|---0000------0000------0000------5-000000000000----------------------------|
E|---0000------0000------0000--------000000000000----------------------------|
                                     .........  
                                   
Chorus is Intro II x2

Verse II is the same as Intro I but starts with a pick scrape

Bridge

e|---------------------------------------------------------------------------|
B|---------------------------------------------------------------------------|
G|---------------------------------------------------------------------------|
D|---5------7------5-------7--77---------------------------------------------|
A|---5--55--7--77--5--55---7--77---------------------------------------------|
E|---5--55--7--77--5--55---7--77---------------------------------------------|       
        ..     ..    .. 

e|---------------------------------------------------------------------------|
B|---------------------------------------------------------------------------|
G|---------------------------------------------------------------------------|
D|---55------------55--77------------77--99------------99--77-------7-7-7-7--|
A|---5555555555555555--7777777777777777--9999999999999999--77777777-7-7-7-7--|
E|---5555555555555555--7777777777777777--9999999999999999--77777777-7-7-7-7--|      
       ............      ............      ............      ......

e|---------------------------------------------------------------------------|
B|---------------------------------------------------------------------------|
G|---------------------------------------------------------------------------|
D|---5555555555555555--7777777777777777--9999999999999999--7777777777777777--|
A|---5555555555555555--7777777777777777--9999999999999999--7777777777777777--|
E|---5555555555555555--7777777777777777--9999999999999999--7777777777777777--|

e|---------------------------------------------------------------------------|
B|---------------------------------------------------------------------------|
G|---------------------------------------------------------------------------|
D|--5------7-----------------------------------------------------------------|
A|--5------7-----------------------------------------------------------------|
E|--5------7-----------------------------------------------------------------|

Chorus is still the same as Intro II

Finish by playing the intro again


************************************
| .   palm mute 
| /   slide up
| \   slide down
| h   hammer-on
| p   pull-off
| ~   vibrato
| +   harmonic
| x   Mute note
| b   Bend
| pb  Pre-bend
| br  Bend release
| pbr Pre-bend release
| brb Bend release bend

************************************
Tap to rate this tab
 
# A B C D E F G H I J K L M N O P Q R S T U V W X Y Z