The Wonder Years - Dont Let Me Cave In tab

Donít Let Me Cave In
The Wonder Years
Suburbia

C#G#C#F#A#D#

Intro
|------------------------------------4-------4-------4-------4-------0-------0-------0-------0----|
|----0-------0-------0-------0-----0---0---0---0---0---0---0---0---2---2---2---2---2---2---2---2--|
|--1---1---1---1---1---1---1---2-2-------2-------2-------2-------2-------2-------2-------2--------|
|2-------2-------2-------2-----------------------------------------------------------------------4|
|-------------------------------------------------------------------------------------------------|
|-------------------------------------------------------------------------------------------------|

Pre Verse
|------------------------|------------------|---------------------|----------|
|------------------------|------------------|---------------------|----------|
|-9---13--11--9--11--9---|-9--13--11--9--13-|-9--13--11--9--11--9-|-9--11--8-|
|------------------------|------------------|---------------------|----------|
|-7---11--9---7--9---7---|-7--11--9---7--11-|-7--11--9---7--9---7-|-7--9---6-|
|------------------------|------------------|---------------------|----------|

Verse
|-------------------------------------------------|
|-------------------------------------------------|
|-9---13--11---9---8--13--9---13--11--9--8--13--9-|
|-------------------------------------------------|
|-7---11--9----7---6--11--7---11--9---7--6--11--7-|
|-------------------------------------------------|

Pre Chorus
|-------------------|
|-------------------|
|---------------9-8-|
|-7-7~-----9-9~-----|
|-7-7~-----9-9~-----|
|-7-7~-----9-9~-----|

Chorus
|------------------------------------|
|------------------------------------|
|-9--8--6--11--9--13--16--18--14--9/-|
|------------------------------------|
|-7--6--4--9---7--11--14--16--12--7/-|
|------------------------------------|

Repeat Pre Verse
Verse 2 - Enters
|-9-0-12-0-5-0-0-9-0-12-0-14-0-12-0-| 
|----------------------------------| 
|-----------------------------------|
|-----------------------------------|
|-----------------------------------|
|-----------------------------------|

Pre Chorus
|-----------------------------|
|-----------------------------|
|-----------------------------|
|-7-7~---9-9~---7-7--7~--9----|
|-7-7~---9-9~---7-7--7~--9-x8-|
|-7-7~---9-9~---7-7--7~--9----|

Repeat Chorus
Bridge
|-----------------------------------------------|
|-----------------------------------------------|
|-11--13--9--8--11--13--9-----------------------|
|---------------------------2-2-2---2-2-2---2-2-|
|-9---11--7--6--9---11--7---2-2-2---2-2-2---2-2-|
|---------------------------2-2-2---2-2-2---2-2-|

Pre Chorus
|----|
|----|
|-9~-|
|--~-|
|-7~-|
|----|

Repeat Chorus

Tap to rate this tab
 
# A B C D E F G H I J K L M N O P Q R S T U V W X Y Z