Song name
# A B C D E F G H I J K L M N O P Q R S T U V W X Y Z

The Wonder Years - Hoodie Weather tab

Artist: The Wonder Years
Album: Suburbia Iíve Given You All And Now Iím Nothing
Track: Hoodie Weather
Guitar 1: Rhythm, Drop C# (C#G#C#F#A#D#)
Guitar 2: Lead, Drop C# (C#G#C#F#A#D#)
Guitar 3: Drop C# (C#G#C#F#A#D#)
NB: Notes in brackets are optional, * means harmonic, . means palm mute

Intro
Guitar 1
D#|--------------------------------|--------------------------------|
A#|-2------------------------------|-2------------------------------|
F#|-2------------------------------|-2------------------------------|
C#|-0------------------------------|-0------------------------------|
G#|-0------------------------------|-0------------------------------|
C#|-0------------------------------|-0------------------------------|

D#|--------------------------------|--------------------------------|
A#|--------------------------------|--------------------------------|
F#|--------------------------------|--------------------------------|
C#|-5-5------------0-0-0-----------|-7-7-7-----------9---9-9-9-9-7-4|
G#|-5-5------------0-0-0-----------|-7-7-7-----------9---9-9-9-9-7-4|
C#|-5-5------------0-0-0-----------|-7-7-7-----------9---9-9-9-9-7-4|

D#|--------------------------------|--------------------------------|
A#|--------------------------------|--------------------------------|
F#|--------------------------------|--------------------------------|
C#|-5-5------------0-0-0-----------|-7-7-7-7-7-7-7-7-7-7-7-7-7-7-7-7|
G#|-5-5------------0-0-0-----------|-7-7-7-7-7-7-7-7-7-7-7-7-7-7-7-7|
C#|-5-5------------0-0-0-----------|-7-7-7-7-7-7-7-7-7-7-7-7-7-7-7-7|

Guitar 2
D#|---/-9--10----------------------|---/-9--10----------------------|
A#|------------12--10--10-10-12-10-|------------12--10--10h12h10----|
F#|--------------------------------|--------------------------------|
C#|--------------------------------|--------------------------------|
G#|--------------------------------|--------------------------------|
C#|--------------------------------|--------------------------------|

D#|---/-9--10----------------------|---/-9--10----------------------|
A#|------------12--10--10-10-12-10-|------------12--10--10-10-------|
F#|--------------------------------|--------------------------12-11-|
C#|--------------------------------|--------------------------------|
G#|--------------------------------|--------------------------------|
C#|--------------------------------|--------------------------------|

D#|---/-9--10----------------------|--------9-10---9-10-12----------|
A#|------------12--10--10-10-12-10-|--10-12-------------------------|
F#|--------------------------------|--------------------------------|
C#|--------------------------------|--------------------------------|
G#|--------------------------------|--------------------------------|
C#|--------------------------------|--------------------------------|

Guitar 3
D#|--------------------------------|--------------------------------|
A#|--------------------------------|--------------------------------|
F#|-7------------------------------|-7------------------------------|
C#|-7------------------------------|-7------------------------------|
G#|-5------------------------------|-5------------------------------|
C#|-0------------------------------|-0------------------------------|

D#|--------------------------------|--------------------------------|
A#|--------------------------------|--------------------------------|
F#|-7-7-7-7-7-7-7-7-11111112--1211-|-6-6-6-6-6-6-6-6-1111119---9-11-|
C#|-x-x-x-x-x-x-x-x-x-x-x-x---x-x--|-x-x-x-x-x-x-x-x-x-x-x-x---x-x--|
G#|-5-5-5-5-5-5-5-5-9-9-9-10--109--|-4-4-4-4-4-4-4-4-9-9-9-7---7-9--|
C#|--------------------------------|--------------------------------|

D#|--------------------------------|--------------------------------|
A#|--------------------------------|--------------------------------|
F#|-7-7-7-7-7-7-7-7-11111112--1211-|-6-6-6-6-6-6-6-6-6-6-6-6-6-6-6-6|
C#|-x-x-x-x-x-x-x-x-x-x-x-x---x-x--|-x-x-x-x-x-x-x-x-x-x-x-x-x-x-x-x|
G#|-5-5-5-5-5-5-5-5-9-9-9-10--109--|-4-4-4-4-4-4-4-4-4-4-4-4-4-4-4-4|
C#|--------------------------------|--------------------------------|

Verse 1
Guitar 1
D#|--------------------------------|--------------------------------|
A#|--------------------------------|--------------------------------|
F#|--------------------------------|--------------------------------|
C#|-----0-------0-------7-------7--|-----4-------4-------9-9-----9--|
G#|-----0-------0-------7-------7--|-----4-------4-------9-9-----9--|
C#|-0-0-0---0-0-0---7-7-7---7-7-7--|-4-4-4---4-4-4---9-9-9-9-9-9-9--|
    . .     . .     . .     . .      . .     . .     . .     . .
D#|--------------------------------|--------------------------------|
A#|--------------------------------|--------------------------------|
F#|--------------------------------|--------------------------------|
C#|-----5-------5-------7-------7--|-----9---9---9-------9---9---9--|All
G#|-----5-------5-------7-------7--|-----9---9---9-------9---9---9--| x2
C#|-5-5-5---5-5-5---7-7-7---7-7-7--|-9-9-9---9---9---9-9-9---9---9--|
    . .     . .     . .     . .      . .             . .

Pre Chorus
Guitar 2
D#|--------------------------------|--------------------------------|
A#|--------------------------------|--------------------------------|
F#|(11--9---11--9---7)-------------|(7---6---7---2)-----------------|
C#|--------------------------------|--------------------------------| x2
G#|-9---7---9---7---5--------------|-5---4---5---0------------------|
C#|--------------------------------|--------------------------------|

Chorus is the same as Intro x2, first time only guitar 1 and 3, second time all three guitars

Verse 2
Guitar 1
D#|--------------------------------|--------------------------------|
A#|--------------------------------|--------------------------------|
F#|--------------------------------|--------------------------------|
C#|-------0---------------7--------|-------4---------------9--------|
G#|-------0---------------7--------|-------4---------------9--------|
C#|-0-0-0-0-0-0-0-0-7-7-7-7-7-7-7-7|-4-4-4-4-4-4-4-4-9-9-9-9-9-9-9-9|
    . . .   . . . . . . .   . . . .  . . . . . . . . . . .   . . . .
D#|--------------------------------|--------------------------------|
A#|--------------------------------|--------------------------------|
F#|--------------------------------|--------------------------------|
C#|-------5------------------------|-----9---9---9-------9---9---9--|
G#|-------5------------------------|-----9---9---9-------9---9---9--|
C#|-5-5-5-5-5-5-5-5-7-7-7-7-7-7-7-7|-9-9-9---9---9---9-9-9---9---9--|
    . . .   . . . . . . . . . . . .  . . .   .   .   . . .   .   .
D#|--------------------------------|--------------------------------|
A#|--------------------------------|--------------------------------|
F#|--------------------------------|--------------------------------|
C#|-----0-------0-------7-------7--|-----4-------4-------9-9-----9--|
G#|-----0-------0-------7-------7--|-----4-------4-------9-9-----9--|
C#|-0-0-0---0-0-0---7-7-7---7-7-7--|-4-4-4---4-4-4---9-9-9-9-9-9-9--|
    . .     . .     . .     . .      . .     . .     . .     . .
D#|--------------------------------|--------------------------------|
A#|--------------------------------|--------------------------------|
F#|--------------------------------|--------------------------------|
C#|-----5-------5-------7-------7--|-----9---9---9-------9---9---9--|
G#|-----5-------5-------7-------7--|-----9---9---9-------9---9---9--|
C#|-5-5-5---5-5-5---7-7-7---7-7-7--|-9-9-9---9---9---9-9-9---9---9--|
    . .     . .     . .     . .      . .             . .

Prechorus

Chorus

Bridge Part 1
Guitar 1
D#|--------------------------------|--------------------------------|
A#|--------------------------------|--------------------------------|
F#|--------------------------------|--------------------------------|
C#|-5-5-5-5-5-5-5-5-0-0-0-0-0-0-0-0|-7-7-7-7-7-7-7-7-7-7-7-7-7-7-7-7| x2
G#|-5-5-5-5-5-5-5-5-0-0-0-0-0-0-0-0|-7-7-7-7-7-7-7-7-7-7-7-7-7-7-7-7|
C#|-5-5-5-5-5-5-5-5-0-0-0-0-0-0-0-0|-7-7-7-7-7-7-7-7-7-7-7-7-7-7-7-7|

Guitar 2
D#|--------------------------------|--------------------------------|
A#|--------------------------------|--------------------------------|
F#|-11--9-----11--9---7------------|-11--9-----11--11----11--121112-|
C#|-x---x-----x---x---x--(7*)------|-x---x-----x---x-----x---x-x-x--|
G#|-9---7-----9---7---5------------|-9---7-----9---7-----9---109-10-|
C#|--------------------------------|--------------------------------|

D#|--------------------------------|--------------------------------|
A#|--------------------------------|--------------------------------|
F#|-11--9-----11--9---7------------|-7---6-----7---2----------------|
C#|-x---x-----x---x---x------------|-x---x-----x---x----------------|
G#|-9---7-----9---7---5------------|-5---4-----5---0----------------|
C#|--------------------------------|--------------------------------|

Prechorus

Bridge Part 2
Guitar 1
D#|--------------------------------|--------------------------------|
A#|--------------------------------|--------------------------------|
F#|--------------------------------|--------------------------------|
C#|-5-5-5-5-5-5-5-5-0-0-0-0-0-0-0-0|-7-7-7-7-7-7-7-7-9-9-9-9-9-9-7-4|
G#|-5-5-5-5-5-5-5-5-0-0-0-0-0-0-0-0|-7-7-7-7-7-7-7-7-9-9-9-9-9-9-7-4|
C#|-5-5-5-5-5-5-5-5-0-0-0-0-0-0-0-0|-7-7-7-7-7-7-7-7-9-9-9-9-9-9-7-4|

D#|--------------------------------|--------------------------------|
A#|--------------------------------|--------------------------------|
F#|--------------------------------|--------------------------------|
C#|-5-5-5-5-5-5-5-5-0-0-0-0-0-0-0-0|-7-7-7-7-7-7-7-7-7-7-7-7-7-7-7-7|
G#|-5-5-5-5-5-5-5-5-0-0-0-0-0-0-0-0|-7-7-7-7-7-7-7-7-7-7-7-7-7-7-7-7|
C#|-5-5-5-5-5-5-5-5-0-0-0-0-0-0-0-0|-7-7-7-7-7-7-7-7-7-7-7-7-7-7-7-7|

Guitar 2
D#|--------------------------------|--------------------------------|
A#|--------------------------------|--------------------------------|
F#|-11--9-----11--9----------------|--------------------------------|
C#|-------------------12-----------|-12--11----12-------------------|
G#|--------------------------------|----------------12--------------|
C#|--------------------------------|--------------------------------|

D#|--------------------------------|--------------------------------|
A#|--------------------------------|--------------------------------|
F#|-11--9-----11--9----------------|---------------14-----14--14--14|
C#|-------------------12-----------|-12--11----12-------------------|
G#|--------------------------------|--------------------------------|
C#|--------------------------------|--------------------------------|

Chorus

End on
Guitar 1
D#|--------------------------------|--------------------------------|
A#|--------------------------------|--------------------------------|
F#|--------------------------------|--------------------------------|
C#|-5------------------------------|--------------------------------|
G#|-5------------------------------|--------------------------------|
C#|-5------------------------------|--------------------------------|
Tap to rate this tab
# A B C D E F G H I J K L M N O P Q R S T U V W X Y Z