Song name
# A B C D E F G H I J K L M N O P Q R S T U V W X Y Z

The Wonder Years - Coffee Eyes tab

-------------------------------------------------------------------------------
			     Coffee Eyes - The Wonder Years
-------------------------------------------------------------------------------
Tabbed by: HxC90sKid
Email: gamerman00@gmail.com

Tuning: Drop D flat (Drop C#)


First tab. I really like the intro to this song (and the rest), and I'm still working on
getting the main chords figured out, but I thought I'd put this up for starters since
no one else has.

I'm 99.99% sure this is correct; it sounds right on my acoustic.
The rhythm is really easy to pick up from the song, and is one of my favorites.

Comments/corrections are always welcome. Enjoy!


Intro:

eb|---------------------------------------------------------------------------|
Bb|---------0----0~~-------------------------------------------0------0~~-----|
Gb|-----------2--------------2--------------0---------------------2-----------|
Db|----0------------------0-----0--------------4--------0---------------------|
Ab|--2----2------------2-----------0-----0--------0--2------2-----------------|
Db|-----------------------------------0---------------------------------------|



************************************

~ = Hold Note

************************************
Tap to rate this tab
# A B C D E F G H I J K L M N O P Q R S T U V W X Y Z