Song name
# A B C D E F G H I J K L M N O P Q R S T U V W X Y Z

The Wonder Years - Local Man Ruins Everything tab

C#G#C#F#A#D#

Intro
GTR1
|-------7------------------|----|---------------------------------|
|-9-7-9---9-7-9-7-0--9-7-9-|----|-9-9-9-9-7-7-7-7-5-5-5-5-4-4-4-4-|
|-9-9-9-9-9-9-9-9-9--9-9-9-|----|-9-9-9-9-9-9-9-9-4-4-4-4-4-4-4-4-|
|--------------------------|----|---------------------------------|
|--------------------------|-x3-|---------------------------------|
|--------------------------|----|---------------------------------|

Verse
GTR1    “The fountain was off”
|-----------------|----------------------------------------------------------|
|-----------------|----------------------------------------------------------|
|-------4~--------|------4-----------------------2---4---6---8---9---8---9---|
|-0-0~--4~--2-----|-0----4-x8-2-----0--///--2-----x4--x4--x4--x4--x4--x4--x2-|
|-0-0~--2~--2-x16-|-0-x8-2----2-x16-0--///--2-x8-0---2---4---6---7---6---7---|
|-0-0~------2-----|-0---------2-----0--///--2--------------------------------|
                                   pick slide

Chorus - These are the notes, I’m not 100% sure on the timing and order.
GTR1    “I’m not a self help book”
|-----------------------------------------------------------------------|
|-9-9-7-9--7--5--4--5--7--5--4--5--9--7--9---------------9--7--5--------|
|-9-9-9-9--6--4--4--4--6--4--4--4--9--9--9---------------9--9--4--------|
|-----------------------------------------------------------------------|
|-----------------------------------------------------------------------|
|-----------------------------------------------------------------------|

        “Expect me standing tall”
|-------7------------------|----|---------------------------------|
|-9-7-9---9-7-9-7-0--9-7-9-|----|-9-9-9-9-7-7-7-7-5-5-5-5-4-4-4-4-|
|-9-9-9-9-9-9-9-9-9--9-9-9-|----|-9-9-9-9-9-9-9-9-4-4-4-4-4-4-4-4-|
|--------------------------|----|---------------------------------|
|--------------------------|-x3-|---------------------------------|
|--------------------------|----|---------------------------------|

GTR2
|----------------------------|
|----------------------------|
|-6----4---------------------|
|-6-x8-4-x8-2----4-5----7----|
|-4----2----2-x8-4-5-x8-7-x8-|
|-----------2----4-5----7----|

Pre Verse
GTR1
|------------------------------------|
|-----12-9---------------12-9--------|
|---9------------------9------9-8-9~-|
|-9--------9-11-9~--9----------------|
|------------------------------------|
|------------------------------------|

Verse 2  x2
GTR1    “I don’t have roses in the closet”           [   not 100% sure  ]
|------------------------------------------------------------------------|
|-12-9-10-9------12-9-10-9-----------12-9-10-9-------12-12-9-9-----------|
|-----------11-9-----------11-9----------------11-9------------11-9-11-9-|
|-------------------------------11-9-------------------------------------|
|------------------------------------------------------------------------|
|------------------------------------------------------------------------|

|----------------------------------------------------------------------|
|-12-9-10-9------12-9-10-9-----------12-9-10-9-------------------------|
|-----------11-9-----------11-9----------------11-9--9-9-8-8-----------|
|-------------------------------11-9-------------------------11-11-9-9-|
|----------------------------------------------------------------------|
|----------------------------------------------------------------------|

Bridge
GTR1
|-0-2-4-0----------------------0-2-4-0-----------------|
|---------0-4-5-4-----------------------0-4-5--4h5-4h5-|
|-----------------6-4----------------------------------|
|---------------------6-4-2-4--------------------------|
|------------------------------------------------------|
|------------------------------------------------------|

|-0-2-4-0----------------------0-2-4-0-------------|
|---------0-4-5-4-----------------------0-4-5--5-5-|
|-----------------6-4--------------------------4-4-|
|---------------------6-4-2-4----------------------|
|--------------------------------------------------|
|--------------------------------------------------|

Repeat Chorus
Bridge
GTR1    “I don’t have roses in the closet”
|--------0------------4----------0-------------------|
|----9-----7----4-4h5---5----9-----7-4-4-4-4-5-5-5-5-|
|-9----8------4------------9---8-----4-4-4-4-4-4-4-4-|
|----------------------------------------------------|
|----------------------------------------------------|
|----------------------------------------------------|

GTR2
|----------------------------|
|----------------------------|
|-6~--4~--------6~--8~--9----|
|-6~--4~--2-----6~--8~--9-x8-|
|-4~--2~--2-x8--4~--6~--7----|
|---------2------------------|

Then
GTR1    “I’m not a self help book”
|----------------------------|
|------------5-4-------------|
|-------4--6-----6-4---------|
|---4-6--------------6-4---4-|
|-7----------------------7---|
|----------------------------|

GTR2
|-------------------------------|
|-------------------------------|
|-6----4---------6----4---------|
|-6-x8-4-x8-2----6-x8-4-x8-2----|
|-4----2----2-x8-4----2----2-x8-|
|-----------2--------------2----|

Outro
GTR1
|-0-2-4-0----------------------0-2-4-0-----------------|
|---------0-4-5-4-----------------------0-4-5--4h5-4h5-|
|-----------------6-4----------------------------------|
|---------------------6-4-2-4--------------------------|
|------------------------------------------------------|
|------------------------------------------------------|

|-0-2-4-0----------------------0-2-4-0-------------|
|---------0-4-5-4-----------------------0-4-5--5-5-|
|-----------------6-4--------------------------4-4-|
|---------------------6-4-2-4----------------------|
|--------------------------------------------------|
|--------------------------------------------------|
Tap to rate this tab
 
# A B C D E F G H I J K L M N O P Q R S T U V W X Y Z