Song name
# A B C D E F G H I J K L M N O P Q R S T U V W X Y Z

The Wonder Years - Everything I Own Fits In This Backpack tab

Everything I Own Fits in This Backpack
The Wonder Years
The Upsides

C#G#C#F#A#D#

Intro
GTR1
|-----------------------------|--------------------------|
|-----------------------------|--------------------------|
|-7---------------------------|-7------------------------|
|-7-x16-5-----2----4----5-----|-7-x16-5-----2----4----5~-|
|-5-----5-x16-2-x8-4-x8-5-x16-|-5-----5-x16-2-x8-4-x8-5~-|
|-------5-----2----4----5-----|-------5-----2----4----5~-|

GTR2 - Enters
|-5-------------------5------------------|
|---5-7-3--/-5-\--3-----5-7-3--/-5-\-7-3-|
|----------------------------------------|
|----------------------------------------|
|----------------------------------------|
|----------------------------------------|

Then
GTR1
|------|----------------------------|----------------------------|
|------|----------------------------|----------------------------|
|-7----|-7-7-7/9-7-7/9-11-11-11-9-9-|-7-7-7/9-7-7-4-4-11-11-11-9-|
|-7-x2-|----------------------------|----------------------------|
|-5----|-5-5-5/7-5-5/7-9--9--9--7-7-|-5-5-5/7-5-5-2-2-9--9--9--7-|
|------|----------------------------|----------------------------|

GTR2
|------|----------------------------|----------------------------|
|------|----------------------------|----------------------------|
|-7----|----------------------------|----------------------------|
|-7-x2-|-7-7-7--5-5-5--9--9--9--7-7-|-0-0-0--5-5-5--2-2-2--4-4-4-|
|-5----|-7-7-7--5-5-5--9--9--9--7-7-|-0-0-0--5-5-5--2-2-2--4-4-4-|
|------|-7-7-7--5-5-5--9--9--9--7-7-|-0-0-0--5-5-5--2-2-2--4-4-4-|

Verse
|-----------------------------|--------------------------|
|-----------------------------|--------------------------|
|-7---------------------------|-7------------------------|
|-7-x16-5-----2----4----5-----|-7-x16-5-----2----4----5~-|
|-5-----5-x16-2-x8-4-x8-5-x16-|-5-----5-x16-2-x8-4-x8-5~-|
|-------5-----2----4----5-----|-------5-----2----4----5~-|
  .     .     .    .    .      .     .     .    .    .
GTR2                                     Not the correct timing etc, listen to song
|--------------------------|---------|-----|----------|---------|----|----------|-----|
|--------------------------|---------|-----|-10-------|---------|----|-10-------|-----|
|-7-----------7-----10-----|-7-6-7-6-|-----|----6-7-6-|-7-6-7-6-|----|----6-7-6-|-----|
|-7-x16-5-----7-x16-10-x16-|---------|-----|----------|---------|----|----------|-----|
|-5-----5-x16-5-----8------|---------|-x10-|----------|---------|-x5-|----------|-x10-|
|-------5------------------|---------|-----|----------|---------|----|----------|-----|

Pre Chorus
GTR1
|--------------------|----|------|
|-----7-----7~-------|----|------|
|---7-----7------7-9-|----|------|
|-4-----5------7-----|----|-0----|
|--------------------|-x4-|-0-x4-|
|--------------------|----|-0----|

GTR2
|---------|----|----------------|
|---------|----|----------------|
|---------|----|-7--------------|
|-0-0-0-0-|----|-7------0-0-0-0-|
|-0-0-0-0-|-x3-|-5-0-x8-0-0-0-0-|
|-0-0-0-0-|----|---0----0-0-0-0-|
                   .
Chorus
GTR1
|------|----------------------------|----------------------------|
|------|----------------------------|----------------------------|
|-7----|-7-7-7/9-7-7/9-11-11-11-9-9-|-7-7-7/9-7-7-4-4-11-11-11-9-|
|-7-x2-|----------------------------|----------------------------|
|-5----|-5-5-5/7-5-5/7-9--9--9--7-7-|-5-5-5/7-5-5-2-2-9--9--9--7-|
|------|----------------------------|----------------------------|

GTR2
|------|----------------------------|----------------------------|
|------|----------------------------|----------------------------|
|-7----|----------------------------|----------------------------|
|-7-x2-|-7-7-7--5-5-5--9--9--9--7-7-|-0-0-0--5-5-5--2-2-2--4-4-4-|
|-5----|-7-7-7--5-5-5--9--9--9--7-7-|-0-0-0--5-5-5--2-2-2--4-4-4-|
|------|-7-7-7--5-5-5--9--9--9--7-7-|-0-0-0--5-5-5--2-2-2--4-4-4-|

Post Chorus
GTR1
|-------------------------------------|
|-----------7~---------------------7~-|
|---7---7-9-----7---7-9~---7---7-9----|
|-9---9-------9---9------9---9--------|
|-------------------------------------|
|-------------------------------------|

GTR2
|-----------|
|-----------|
|-7~--------|
|-7~---5-7~-|
|-5~---5-7~-|
|------5-7~-|

Verse 2
GTR1
|----------------5-3-2----------2~----5~-5-3-2------2---3------5-3-2---|
|--------------3-------3------3-----3----------3--3---3---3--3-------3-|
|-----7---------------------0------------------------------------------|
|-///--x-lots-------------4--------------------------------------------|
|-///-5----------------------------------------------------------------|
|-///------------------------------------------------------------------|

GTR2
|-----------------------------|
|-----------------------------|
|-----------------------------|
|-0-----5-----2----4----5-----|
|-0-x16-5-x16-2-x8-4-x8-5-x16-| x2
|-0-----5-----2----4----5-----|

Pre Chorus
GTR1
|----------------------|
|-----7-----7~-----10~-|
|---7-----7------7-9---|
|-4-----5------7-------|
|----------------------|
|----------------------|

GTR2
|----|
|----|
|----|
|-0~-|
|-0~-|
|-0~-|

Repeat Chorus
Post Chorus
GTR1
|-------------------------------------|
|-----------7~---------------------7~-|
|---7---7-9-----7---7-9~---7---7-9----|
|-9---9-------9---9------9---9--------|
|-------------------------------------| x4
|-------------------------------------|

GTR2
|-----------|
|-----------|
|-7~--------|
|-7~---5-7~-|
|-5~---5-7~-| x4
|------5-7~-|

Bridge
GTR1
|--------------------------|
|--------------------------|
|-7-9-9-7--7-9-7--7-9-7-9~-|
|--------------------------|
|--------------------------|
|--------------------------|

GTR2
|-------------------------|----|--------|
|-------------------------|----|--------|
|-------------------------|----|--------|
|-5-----7-----9-----7-----|----|-5~--7~-|
|-5-x16-7-x16-9-x16-7-x16-|-x2-|-5~--7~-|
|-5-----7-----9-----7-----|----|-5~--7~-|

Repeat Chorus
Repeat Post Chorus
Outro
GTR1
|-----------------------------|--------------------------|
|-----------------------------|--------------------------|
|-7---------------------------|-7------------------------|
|-7-x16-5-----2----4----5-----|-7-x16-5-----2----4----5~-|
|-5-----5-x16-2-x8-4-x8-5-x16-|-5-----5-x16-2-x8-4-x8-5~-|
|-------5-----2----4----5-----|-------5-----2----4----5~-|
  .     .     .    .    .       .     .     .    .    .
GTR2 
|-5------------------5-------------------|
|---5-7-3--/-5-\--3-----5-7-3--/-5-\-7-3-|
|----------------------------------------|
|----------------------------------------|
|----------------------------------------|
|----------------------------------------|
Tap to rate this tab
 
# A B C D E F G H I J K L M N O P Q R S T U V W X Y Z