Song name
# A B C D E F G H I J K L M N O P Q R S T U V W X Y Z

The Wonder Years - This Party Sucks tab

This Party Sucks
The Wonder Years

C#G#C#F#A#D#

Intro
|--------------------------------|
|--------3---3-2---2-------------|
|----------2-----2---4-2-2h4p2---|
|------------------------------0-|
|-0-x16--------------------------|
|-0------------------------------|

Then
|--------------------------------------------------------------------------------------------|
|-10-10-------------------------10-10-12-----------------------------------------------------|
|-------11-9----11/12-11-9-11------------11--11b13r11-9------9-11-9-9-----11/12-11-9-9-11-11-|
|------------12-----------------------------------------12------------12---------------------|
|--------------------------------------------------------------------------------------------|
|--------------------------------------------------------------------------------------------|

|-----------------|
|-----------------|
|-9-11-9-7-7h9p7~-|
|-----------------|
|-----------------|
|-----------------|


Verse
GTR1
|--------|--------------------------------------|
|--------|------------3---3-2---2-0---0---------|
|--------|--------------2-----2-----2---2h4p2---|
|-0~--0~-|------------------------------------0-|
|-0~--0~-|-2-2-0-x16----------------------------|
|-0~--0~-|-2-2-0--------------------------------|

GTR2
|--------|------------------------------------|
|--------|------------------------------------|
|--------|------------------------------------|
|-0~--0~-|------------9-------7-------5-------|
|-0~--0~-|-2-2-0-x16--9-9-9-9-7-7-7-7-5-5-5-5-|
|-0~--0~-|-2-2-0------9-9-9-9-7-7-7-7-5-5-5-5-|

Pre Chorus
First Time                                                                            Second time
|---------|--------------------------------------9h10p9--------9h10p9---------------|-------------|
|---------|-----------------------------------10--------10-------------10-----------|-10-10-10-10-|
|---------|-4-/-6-7-7-7-6-/-7-/-9-9-9--7h9/11---------------11------------11-9-7hp9-|-------------|
|-0-2h4-0-|-------------------------------------------------------------------------|-7--7--7--7--|
|---------|-2-/-4-5-5-5-4-/-5-/-7-7-7-----------------------------------------------|-------------|
|---------|-------------------------------------------------------------------------|-------------|

Chorus
GTR1
|--------------------------------------------------|
|--------------------------------------------------|
|-------------------------------4-4-7-7------------|
|-0----5----0----5----0----5----4-4-7-7-7-7-2-2-0~-|
|-0-x8-5-x8-0-x8-5-x8-0-x8-5-x8-2-2-5-5-7-7-2-2-0~-|
|-0----5----0----5----0----5------------7-7-2-2-0~-|

GTR2
|-------0-----------5-----|----|-----2h3p2-----2h3p2----|
|-----3---3-------3---3---|----|-5-3-------5-3-------3~-|
|---2-------2---2-------2-|----|------------------------|
|-0-----------0-----------|----|------------------------|
|-------------------------|-x3-|------------------------|
|-------------------------|----|------------------------|

Repeat Verse
Then
|----------------------------------------------------------|
|----------------------------------------------------------|
|-------7/9/7--------7-7-6-6-4-4---------------------------|
|--------------------------------7-7-5-5-4-4-------------7-|
|-0-x8--5/7/5--0-x8--------------------------7-7-5-5-5h7---|
|-0------------0-------------------------------------------|

Pre Chorus
|--------------------------------------9h10p9----------9h10p9----------------|-------------|
|-----------------------------------10--------10----10--------10-------------|-10-10-10-10-|
|-4-/-6-7-7-7-6-/-7-/-9-9-9--7h9/11--------------11---------------11-9-7h9p7-|-------------|
|----------------------------------------------------------------------------|-7--7--7--7--|
|-2-/-4-5-5-5-4-/-5-/-7-7-7--------------------------------------------------|-------------|
|----------------------------------------------------------------------------|-------------|

Repeat Chorus
Bridge
|--------------------------------------------------------------------------------|
|--------------------------------------------------------------------------------|
|-7-7-9-11-11-11-11-9-9-11-9-9-7-7-7-7-9-9-9-11-11-11-11-11-14-14-14-11-11-11-11-|
|--------------------------------------------------------------------------------|
|-5-5-7-9--9--9--9--7-7-9--7-7-5-5-5-5-7-7-7-9--9--9--9--9--12-12-12-9--9--9--9--|
|--------------------------------------------------------------------------------|

|--------------------------------------------------------|
|--------------------------------------------------------|
|-9-9-9-11-11-9-7-9-11-9-9-9-7-7-7-7-9-9-9-9-11-11-11-11-|
|--------------------------------------------------------|
|-7-7-7-9--9--7-5-7-9--7-7-7-5-5-5-5-7-7-7-7-9--9--9--9--|
|--------------------------------------------------------|

Final Chorus
|-----------------------------------------------------------------------------------|
|-----------------------------------------------------------------------------------|
|---------------------------------------------------4-4-7-7-------------------------|
|-7~--0----5----7/--7~--0----5----0----5----0----5--4-4-7-7-7-7-2-2-0~--0~--0~--x-x-|
|-7~--0-x8-5-x8-7/--7~--0-x8-5-x8-0-x8-5-x8-0-x8-5--2-2-5-5-7-7-2-2-0~--0~--0~--x-x-|
|-7~--0----5----7/--7~--0----5----0----5----0----5----------7-7-2-2-0~--0~--0~--x-x-|
Tap to rate this tab
 
# A B C D E F G H I J K L M N O P Q R S T U V W X Y Z