Song name
# A B C D E F G H I J K L M N O P Q R S T U V W X Y Z

The Wonder Years - Dynamite Shovel tab

D#G#C#F#A#D#

Intro
|-----------------------------|----------------------------------|
|-----------------------------|----------------------------------|
|-7-7-7--9-/-11-/-9-7-7-7-7-9-|-7-7-7--9-/-11--14-14-14-14-12-11-|
|-----------------------------|----------------------------------|
|-5-5-5--7-/-9--/-7-5-5-5-5-7-|-5-5-5--7-/-9---12-12-12-12-10-9--|
|-----------------------------|----------------------------------|

|-----------------------------|-------------------------------------|
|-----------------------------|-------------------------------------|
|-7-7-7--9-/-11-/-9-7-7-7-7-9-|-14-14-14-14-12-12-12-12-11-11-11-11-|
|-----------------------------|-------------------------------------|
|-5-5-5--7-/-9--/-7-5-5-5-5-7-|-12-12-12-12-10-10-10-10-9--9--9--9--|
|-----------------------------|-------------------------------------|


Verse
|---------------------------------------------------------------------------|
|---------------7-------------------------------------7---------------------|
|-7~----7h9p7-----9-7--7~---7-6-7-7~----7~----7h9p7-----7-7~----7h9p7-7~----|
|---7~--------7----------7~---------7~----7~--------7-------7~-----------7~-|
|---------------------------------------------------------------------------|
|---------------------------------------------------------------------------|

Then
|-------------------------------------------------|---------------------------|
|-------------------------------------------------|---------------------------|
|-7-7-7-7-7-7-9-9-9-9-9-9-11-11-11-11-11-11-14-12-|-11-11-11-11-9-9-9-9-7~-11-|
|-------------------------------------------------|---------------------------|
|-5-5-5-5-5-5-7-7-7-7-7-7-9--9--9--9--9--9--12-10-|-9--9--9--9--7-7-7-7-5~-9--|
|-------------------------------------------------|---------------------------|

|--------------------------------------------------------------------|
|--------------------------------------------------------------------|
|-7-7-9-9-9-9-11-11-11-11-11-11-14-12-11-7-7-7-7-7-7-5-5-5-5-5-5-5-5-|
|--------------------------------------------------------------------|
|-5-5-7-7-7-7-9--9--9--9--9--9--12-10-9--5-5-5-5-5-5-3-3-3-3-3-3-3-3-|
|--------------------------------------------------------------------|

Outro
|-----------------------------|----------------------------------|
|-----------------------------|----------------------------------|
|-7-7-7--9-/-11-/-9-7-7-7-7-9-|-7-7-7--9-/-11--14-14-14-14-12-11-|
|-----------------------------|----------------------------------|
|-5-5-5--7-/-9--/-7-5-5-5-5-7-|-5-5-5--7-/-9---12-12-12-12-10-9--|
|-----------------------------|----------------------------------|

|-----------------------------|-------------------------------------|
|-----------------------------|-------------------------------------|
|-7-7-7--9-/-11-/-9-7-7-7-7-9-|-14-14-14-14-12-12-12-12-11-11-11-11-|
|-----------------------------|-------------------------------------|
|-5-5-5--7-/-9--/-7-5-5-5-5-7-|-12-12-12-12-10-10-10-10-9--9--9--9--|
|-----------------------------|-------------------------------------|

End On
|----|
|-3~-|
|-2~-|
|-0~-|
|-0~-|
|-0~-|
Tap to rate this tab
# A B C D E F G H I J K L M N O P Q R S T U V W X Y Z