Song name
# A B C D E F G H I J K L M N O P Q R S T U V W X Y Z

The Wonder Years - Lets Moshercise tab

-------------------------------------------------------------------------------
                             Let's Moshercise!!! - The Wonder Years
-------------------------------------------------------------------------------
Tabbed by: William Silva
E-mail: w.silva93@hotmail.com

Tuning: Drop C# (C# G# C# F# A# D#)

This is just the lead part, the other tab already on Ultimate Guitar
(http://tabs.ultimate-guitar.com/t/the_wonder_years/lets_moshercise_tab.htm) has the 
rhythm part, and it's
pretty damn accurate. There might be a few mistakes in this.

Intro
e|---------------------------------------------------------------------------|
B|---------------------------------------------------------------------------|
G|---------------------------------------------------------------------------|
D|----4----5----4----4--7-5-4-----5----5----5----5--7-5-4--------------------|
A|--5----5----5----5----------7-5----5----5----5----------7------------------|
E|---------------------------------------------------------------------------|
    .    .    .    .            .    .    .    .
e|---------------------------------------------------------------------------|
B|---------------------------------------------------------------------------|
G|----------------------------------------------------7----------------------|
D|----4----4----4----4--7-5-4-----5----5----5----5--7---7--------------------|
A|--5----5----5----5----------7-5----5----5----5-----------------------------|
E|---------------------------------------------------------------------------|
    .    .    .    .            .    .    .    .    + + +
Pre-verse 1
e|---------------------------------------------------------------------------|
B|------------------------8-7-------------------------8-7---10----10--10---10|
G|-7-7--9-9--11-9------7------9-7----7--7---7------7------9-----7--------7---|
D|-----------------7-9-------------7------7----7-9---------------------------|
A|-5-5--7-7--9--7------------------------------------------------------------|
E|---------------------------------------------------------------------------|

e|---------------------------------------------------------------------------|
B|--------8-7------------------10--10--8p7-8p7-8p7-8p7-8p7-------------------|
G|-----7------9-7----7--7---7------------------------------------------------|
D|-7-9-------------7------7--------------------------------------------------|
A|---------------------------------------------------------------------------|
E|---------------------------------------------------------------------------|

Verse 1
e|-------------------|-------------------------------------------------------|
B|-------------------|-------------------------10p7--10--7\------------------|
G|--7-7-6------------|----------6-7-9--9--9h11-------------------------------|
D|---------9--7h9p7--|--7-7-7-9----------------------------------------------|
A|-------------------|-------------------------------------------------------|
E|-------------------|-------------------------------------------------------|

Chorus
e|---------------------------------------------------------------------------|
B|---7------------------------7-----------------------7----------------------|
G|-------7------------------------7------7---7h9p7--------7------------------|
D|----------9-9-9-9-7-7-7-7----------7h9---9-----------------9-9-9-9-7-7-7-7-|
A|---------------------------------------------------------------------------|
E|-0---0--------------------0---0-------------------0---0--------------------|
   . + . +                  . + . +                 . + . +
Pre-verse 2
e|---------------------------------------------------------------------------|
B|------------------------8-7-------------------------8-7---10----10--10---10|
G|-7-7--9-9--11-9------7------9-7----7--7---7------7------9-----7--------7---|
D|-----------------7-9-------------7------7----7-9---------------------------|
A|-5-5--7-7--9--7------------------------------------------------------------|
E|---------------------------------------------------------------------------|

e|---------------------------------------------------------------------------|
B|--------8-7------------------10---10--8p7-8p7-8p7--------------------------|
G|-----7------9-7----7--7---7-----7------------------------------------------|
D|-7-9-------------7------7--------------------------------------------------|
A|---------------------------------------------------------------------------|
E|---------------------------------------------------------------------------|

Verse 2
e|--------------|-----------|------------------------------------------------|
B|--------------|-----------|------------------------------------------------|
G|----5~--5~----|----7b8br--|----5~--5~--------------------------------------|
D|--7~--7~--7~--|--9--------|--7~--7~--7~------------------------------------|
A|--------------|-----------|------------------------------------------------|
E|--------------|-----------|------------------------------------------------|

Chorus
e|---------------------------------------------------------------------------|
B|---7------------------------7-----------------------7----------------------|
G|-------7------------------------7------7---7h9p7--------7------------------|
D|----------9-9-9-9-7-7-7-7----------7h9---9-----------------9-9-9-9-7-7-7-7-|
A|---------------------------------------------------------------------------|
E|-0---0--------------------0---0-------------------0---0--------------------|
   . + . +                  . + . +                 . + . +
Outro
e|-------------------------------------------10------------------------------|
B|------------------7----8----7----8----7-------8----8----8~-----------------|
G|-7-7--9-9--11-9---7-x8-7-x8-7-x8-7-x8-7-x6------7--7-x4-7~-----------------|
D|---------------------------------------------------------------------------|
A|-5-5--7-7--9--7------------------------------------------------------------|
E|---------------------------------------------------------------------------|

e|--10-----10-----10-----10--------------------------------------------------|
B|------7------7------7------7---8-----8-----8-----8-7---7-------------------|
G|----------------------------------7-----7-----7------9---------------------|
D|---------------------------------------------------------------------------| x2
A|---------------------------------------------------------------------------|
E|---------------------------------------------------------------------------|

e|--10-----10-----10-----10--------------------------------------------------|
B|------7------7------7------7-----------------------------------------------|
G|---------------------------------------------------------------------------|
D|---------------------------------------------------------------------------|
A|---------------------------------------------------------------------------|
E|---------------------------------------------------------------------------|

The rest is the same as the rhythm tab.

************************************

| /   slide up
| \   slide down
| h   hammer-on
| p   pull-off
| ~   vibrato
| +   harmonic
| x   Mute note
| b   Bend
| pb  Pre-bend
| br  Bend release
| pbr Pre-bend release
| brb Bend release bend

************************************
Tap to rate this tab
 
# A B C D E F G H I J K L M N O P Q R S T U V W X Y Z